3.5/10

DIFFICULTY

STANDARD TUNING

NO CAPO

Guitar Chord & Songwriting Cheat Sheet

GUITARZERO2HERO FREEBIE:

CHORD & SONGWRITING CHEAT SHEET

MASTER OVER 200+ CHORDS & MORE - YOU'LL ALSO RECEIVE THE LATEST NEWS & UPDATES FROM GUITARZERO2HERO

Welcome to this Where Were You In The Morning Guitar Tutorial by Shawn Mendes! This is probably my favourite song Shawn has released off his new album and it has a very funky and sexy John Mayer feel to it. In fact he recently performed this song live WITH John Mayer and the result was incredible!

The great thing is this song is very simple to play and mainly just loops riffs throughout the whole song. In this video i’ll teach you how to play both the lead and rhythm parts on guitar.

Enjoy! Like this #wherewereyouinthemorning video by #shawnmendes and subscribe to the channel for more videos in the future!

-Dave Tran (Your online guitar teacher ūüėĀ)

[EASY VERSION OF RIFF]
 Am7         Bm7   Cmaj7           Cmaj7 
e|-------x-----------x----|-------x----------------|
B|-------x-----------x----|-------x----------------|
G|-5-----x-----7--7--x--9-|-------x-----9-----7----|
D|-5-----x-----7--7--x--9-|-------x-----9-----7----|
A|-------x-----------x----|-------x----------------|
E|-5-----x-----7--7--x--8-|-------x-----8-----7----|
   1  +  2  +  3  +  4  +   1  +  2  +  3  +  4  + 

[MORE ACCURATE VERSION OF RIFF]
 Am7         Bm7   Cmaj7           Cmaj7 
e|-------------------x----|-------x----------------|
B|-------------------x----|-------x----------------|
G|-5-----5-----7--7--x--9-|-------x-----9-----7----|
D|-5-----5-----7--7--x--9-|-------x-----9-----7----|
A|------(x)----------x----|-------x----------------|
E|-5--5-(x)----7--7--x--8-|-------x-----8-----7----|
   1  +  2  +  3  +  4  +   1  +  2  +  3  +  4  + 

[INTRO/CHORUS LEAD HIGHER OCTAVE]
e|-----------------------------------------------|
B|-----8---8h10-8---10/12-10/12\10-10-8-8h10-8---|
G|-7h9---9--------9----------------------------9-|
D|-----------------------------------------------|
A|-----------------------------------------------|
E|-----------------------------------------------|

[INTRO/CHORUS LEAD lower OCTAVE]
e|-----------------------------------------------|
B|-----------------------------------------------|
G|-----------------------------------------------|
D|-----5---5h7--5---7/9---7/9\7----7--5-5h7--5---|
A|-5h7---7--------7----------------------------7-|
E|-----------------------------------------------|

2018-06-07T11:04:26+00:00