6/10

DIFFICULTY

STANDARD TUNING

NO CAPO

Guitar Chord & Songwriting Cheat Sheet

GUITARZERO2HERO FREEBIE:

CHORD & SONGWRITING CHEAT SHEET

MASTER OVER 200+ CHORDS & MORE - YOU'LL ALSO RECEIVE THE LATEST NEWS & UPDATES FROM GUITARZERO2HERO

CHORD SHAPES

Welcome to this Don’t Speak Guitar Tutorial by No Doubt! This is a classic 90’s song and still gets heaps of radio play of rock stations around the world. Musically speaking it’s a very clever song and has a lot of cool guitar riffs and techniques. Because of the number of techniques this song has, it’s a little more challenging than most pop/rock songs – especially the solo in the bridge! As such, this is a great challenge for beginners/intermediate players who was to push their skills further. In the video I cover all the main guitar parts in the songs including:

1. The rhythm guitar strumming and picking

2. The acoustic solo in the bridge.

At the end of the video i’ll do a playthroughs of the so you can play along and practice!

Enjoy! Like this #dontspeak video by #nodoubt and subscribe to the channel for more videos in the future!

-Dave T

[Intro]
   Cm                 Cm
e|-----------------|-----------------|
B|-4---4---4---4---|-4---4---4---4---|
G|-5---5---5---5---|-5---5---5---5---|    
D|---5---5---5---5-|---5---5---5---5-|    
A|-----------------|-----------------| 
E|-----------------|-----------------|

[Verse 1]
   Cm                Gm      Fm        Bb      Gm        Fm      Bb
e|-----------------|-----------------|-----------------|-----------------|
B|-4---4---4---4---|-3---3---1---1---|-3---3---3---3---|-1---1---3---3---|
G|-5---5---5---5---|-3---3---1---1---|-3---3---3---3---|-1---1---3---3---|
D|---5---5---5---5-|---5---5---3---3-|---3---3---5---5-|---3---3---3---3-|
A|-----------------|-----------------|-----------------|-----------------|
E|-----------------|-----------------|-----------------|-----------------|

   Cm      Gm        Fm      Bb        Gm      Cm        Fm      Bb
e|-----------------|-----------------|-----------------|-----------------|
B|-4---4---3---3---|-1---1---3---3---|-3---3---4---4---|-1---1---3---3---|
G|-5---5---3---3---|-1---1---3---3---|-3---3---5---5---|-1---1---3---3---|
D|---5---5---5---5-|---3---3---3---3-|---5---5---5---5-|---3---3---3---3-|
A|-----------------|-----------------|-----------------|-----------------|
E|-----------------|-----------------|-----------------|-----------------|

    
[Pre Chorus]
   Cm      Gm        Fm      Bb        Eb      Bb        C
e|-----------------|-----------------|-----------------|-0---------------|
B|-4---4---3---3---|-1---1---3---3---|-8---8---6---6---|-1---------------|
G|-5---5---3---3---|-1---1---3---3---|-8---8---7---7---|-0---------------|
D|---5---5---5---5-|---3---3---3---3-|---8---8---8---8-|-2---------------|
A|-----------------|-----------------|-----------------|-3---------------|
E|-----------------|-----------------|-----------------|-----------------|



[Chorus 1]
Fm   Bbm   Eb    C              
Bbm  C     Fm    Bbm C
Fm   Bbm   Eb    C              
Bbm  C     Fm    C#  D#

[Verse 2]
   Cm                 Gm      Fm        Bb      Gm        Fm      Bb
E|-----------------|-----------------|-----------------|-----------------|
B|-4---4---4---4---|-3---3---1---1---|-3---3---3---3---|-1---1---3---3---|
G|-5---5---5---5---|-3---3---1---1---|-3---3---3---3---|-1---1---3---3---|
D|---5---5---5---5-|---5---5---3---3-|---3---3---5---5-|---3---3---3---3-|
A|-----------------|-----------------|-----------------|-----------------|
E|-----------------|-----------------|-----------------|-----------------|

[Prechorus 2]
Cm      Gm        Fm      Bb     
Eb      Bb        C


[Chorus 2]
Fm   Bbm   Eb    C              
Bbm  C     Fm    Bbm C
Fm   Bbm   Eb    C              
Bbm  C     |POWERCHORDS|

    F5  Eb5 C5  Ab5
e|-----------------|
B|-----------------|
G|--10--8---5------|
D|--10--8---5---6--|
A|--8---6---3---6--|
E|--------------4--|


[Bridge]
   Db            Ab/C                B             Gb/Bb
e|---------------------------------|---------------------------------|
B|---------------------------------|---------------------------------|
G|-6-------------5-----------------|-4-------------3-----------------|
D|-6-------------6-----------------|-4-------------4-----------------|
A|-4-------------3-----------------|-2-------------1-----------------|
E|---------------------------------|---------------------------------| 
   D – D U D U D U – U D U – U D U   D – D U D U D U – U D U – U D U

e|---------------------|-----------------------|
B|---------------------|-------------4---------|
G|-6---6---6-----------|-6-----6-----5---------|
D|-7---7---7-----------|-6-----6-----6---------|
A|-0---4---6~----------|-4-----6-----6---------|
E|---------------------|-------------4---------| 
                         D U – U – U D

[Solo]                 
e|-------3-------------------------------------|-------3---------------3-4-3-4-4/6---4p3----|
B|---4-6---6----3---------------4----6/8-6--8~-|---4-6---6----3-------4------------------6--|
G|/5--------------3-----------5----------------|/5--------------3----5----------------------|
D|---------------------5/6~--------------------|--------------------------------------------|
A|---------------------------------------------|--------------------------------------------|
E|---------------------------------------------|--------------------------------------------|

e|----------8--10--11--10-h11p10p8-10----8-----------------------------------------|
B|---------8--------------------------11---8-11----8------8---9---11---9-h11p9p8---|
G|--------8-------------------------------------10---8-10--------------------------|
D|-------10------------------------------------------------------------------------|
A|---------------------------------------------------------------------------------|
E|---------------------------------------------------------------------------------|

e|--------------------------------------------------|
B|--------------------------------------------------|
G|--------------------------------------------------|
D|-------------------------8-10---8-----------------|
A|---------8-10----8-10-11------------11---10h11p10-|
E|-8h10-11------11----------------------------------|


[Verse 3]
   Cm      Gm        Fm      Bb        F5                Bb5      
e|-----------------|-----------------|-----------------|-----------------|
B|-4---4---3---3---|-1---1---3---3---|-----------------|-----------------|
G|-5---5---3---3---|-1---1---3---3---|-----------------|-----------------|
D|---5---5---5---5-|---3---3---3---3-|-3-3-3-3-3-3-3-3-|-8-8-8-8-8-8-8-8-|
A|-----------------|-----------------|-3-3-3-3-3-3-3-3-|-8-8-8-8-8-8-8-8-|
E|-----------------|-----------------|-1-1-1-1-1-1-1-1-|-6-6-6-6-6-6-6-6-|

[Chorus 3/Outro]
Fm   Bbm   Eb    C              
Bbm  C     Fm    Bbm C

2018-05-17T04:36:28+00:00