4/10

DIFFICULTY

STANDARD TUNING

NO CAPO

Guitar Chord & Songwriting Cheat Sheet

GUITARZERO2HERO FREEBIE:

CHORD & SONGWRITING CHEAT SHEET

MASTER OVER 200+ CHORDS & MORE - YOU'LL ALSO RECEIVE THE LATEST NEWS & UPDATES FROM GUITARZERO2HERO

CHORD SHAPES

Welcome to this Stay Guitar Tutorial by Post! This is one of the more chilled and laid back tracks off his new album Beerbongs and Bentleys and is personally my favourite song off the record. This is a great acoustic song to play on guitar and has no capo! yay! It also has a really simple guitar solo made up of a lot of single string notes and slides.

In this video i’ll teach you 2 different versions of playing this song.

1. Easy strumming pattern version
2. Studio strumming pattern version (a little harder)

At the end of the video i’ll do 2 playthroughs of the song for each version so you can play along and practice!

Enjoy! Like this #stay video by #postmalone and subscribe to the channel for more videos in the future!

-Dave T

[SINGLE NOTE SECTION]
e|-----------------------------|
B|-----------------------------|
G|-----------------------------|
D|----------------2---0--------|
A|------0----1-------------3---|
E|-3---------------------------|


[Verse 1]
      Fmaj7                  Cmaj7/G              Am7
It's true that all that you know is all that you are
                   (Tab)                   Fmaj7
You said that it's all that you want and more
                           Cmaj7/G
Fuck off and pour another drink
                       Am7
And tell me what you think
                  (Tab)                     Fmaj7
You know that I'm too drunk to talk right now
                                  Cmaj7/G
You put your cigarette out on my face
          Am7
So beautiful, please woman

[Pre-Chorus]
(Tab)                      F
Don't break your back for me
             Fm
I'll put you out of your misery

[Chorus]
Cmaj7/G
Tell me that it's all okay (tell me that it's all okay)
          Am7
I've been waitin' on this all damn day (waitin' on this all damn day)
D7
Call me in the mornin', tell me how last night went
     F              Fm
I'm here, but don't count on me to...

[Verse 2]
Fmaj7
Stay a little longer if you convince me

You tell me all the things that you have against me
Cmaj7/G
Every time we make up, the truth is faded
Am7
Everybody's blind when the view's amazin'
(Tab)
Damn, who are we right now?
Fmaj7
Can we have a little conversation?

Figure it out with no intoxication
Cmaj7/G
We carry on, what is our motivation?
Am7
We're never wrong, how the hell we gonna make it?
(Tab)
Maybe we're used to this
Fmaj7
     Tell me, what are we to do

It's like we only play to lose
Cmaj7/G
       Chasin' pain with an excuse
Am7
  I love that shit and so do you

[Pre-Chorus]
    (Tab)                      F
But don't break your back for me
             Fm
I'll put you out of your misery

[Chorus]
Cmaj7/G
Tell me that it's all okay (tell me that it's all okay)
          Am7
I've been waitin' on this all damn day (waitin' on this all damn day)
D7
Call me in the mornin', tell me how last night went
     F              Fm
I'm here, but don't count on me to stay

[Guitar Solo] (Chords same as verse and Prechorus)

e|------|----------------------------------------------------------------------------------------|
B|-5/10-|-10--------------10/17-17—15--13\8-8------13\10-10-----17--15--13—8/10/11/17--15--13\10-|
G|------|----------------------------------------------------------------------------------------|
D|------|----------------------------------------------------------------------------------------|
A|------|----------------------------------------------------------------------------------------|
E|------|----------------------------------------------------------------------------------------|

       e|----------------------15\12------15\10-10/12/13—13/15-13--------------------------------|
       B|-12/13-----15/17-----------------------------------------10/13-------13\9-9\8-8\6-6---5-|
       G|----------------------------------------------------------------------------------------|
       D|----------------------------------------------------------------------------------------|
       A|----------------------------------------------------------------------------------------|
       E|----------------------------------------------------------------------------------------|

[Chorus]
Cmaj7/G
Tell me that it's all okay (tell me that it's all okay)
          Am7
I've been waitin' on this all damn day (waitin' on this all damn day)
D7
Call me in the mornin', tell me how last night went
     F              Fm            Cmaj7/G
I'm here, but don't count on me to stay
2018-06-07T11:04:26+00:00