4/10

DIFFICULTY

STANDARD TUNING

NO CAPO

Guitar Chord & Songwriting Cheat Sheet

GUITARZERO2HERO FREEBIE:

CHORD & SONGWRITING CHEAT SHEET

MASTER OVER 200+ CHORDS & MORE - YOU'LL ALSO RECEIVE THE LATEST NEWS & UPDATES FROM GUITARZERO2HERO

CHORD SHAPES

Welcome to this 2002 Guitar Tutorial by Anne-Marie! This is her newest single and was written by none other than Ed Sheeran, and you can definitely tell by the clever lyrics and throwbacks to early 2000’s pop music.

In this video i’ll teach you 2 different versions of playing this song.

1. Easy strummed version (No Capo)
2. Studio version with fingerpicking (No Capo)

My friend Diana has provided her awesome vocals for the song playthrough if you want to check out her cover head over to her channel and subscribe.
https://www.youtube.com/user/dianaorga

Enjoy! Like this #2002 video by #annemarie and subscribe to the channel for more videos in the future!

-Dave T

[Verse 1]
                 E
I will always remember
     E
The day you kissed my lips
             C#m
Light as a feather
        C#m
And it went just like this
                    A
No, it's never been better
              B        E
Than the summer of 2002
              E
We were only eleven
      E
But acting like grownups
                   C#m
Like we are in the present
        C#m
Drinking from plastic cups
                 A              B
Singing love is forever and ever
                       E
Well, I guess that was true


[Pre-Chorus]
  C#m                        A
Dancing on the hood in the middle of the woods
       E            B
Of an old Mustang, where we sang
  A                            B
Songs with all our childhood friends

And it went like this, say


[Chorus]
 A      E      B                        C#m
Oops I got 99 problems singing bye, bye, bye
          A                          E
Hold up, if you wanna go and take a ride with me
        B                      C#m
Better hit me, baby, one more time
  A                  E
Paint a picture for you and me
         B                C#m
Of the days when we were young
   A                            B
Singing at the top of both our lungs


[Verse 2]
                      E
Now we're under the covers
       E
Fast forward to eighteen
                   C#m
We are more than lovers
       C#m
Yeah, we are all we need
                    A
When we're holding each other
            B         E
I'm taken back to 2002

Yeah


[Pre-Chorus]
  C#m                        A
Dancing on the hood in the middle of the woods
       E             B
Of an old Mustang, where we sang
  A                            B 
Songs with all our childhood friends

And it went like this, say


[Chorus]
 A      E        B                       C#m
Oops I got 99 problems singing bye, bye, bye
         A                            E
Hold up, if you wanna go and take a ride with me
        B                       C#m
Better hit me, baby, one more time
  A                  E
Paint a picture for you and me
         B                 C#m
Of the days when we were young
  A                             B
Singing at the top of both our lungs
                        E  B  C#m A
On the day we fell in love
                        E  B  C#m A
On the day we fell in love


[Pre-Chorus]
   C#m                          A 
Dancing on the hood in the middle of the woods
        E            B 
Of an old Mustang, where we sang
  A                            B 
Songs with all our childhood friends

Oh, now


[Chorus]
  A     E      B                         C#m
Oops I got 99 problems singing bye, bye, bye
          A                           E
Hold up, if you wanna go and take a ride with me
        B                       C#m
Better hit me, baby, one more time
  A                  E
Paint a picture for you and me
        B                  C#m
Of the days when we were young
  A                              B
Singing at the top of both our lungs
                        E  B  C#m A
On the day we fell in love
                        E  B  C#m A
On the day we fell in love
                        E  B  C#m A
On the day we fell in love
                        E  B  C#m A
On the day we fell in love
                        A
On the day we fell in love, love, love
[Verse]
   E                                                         B         C#m                                                       G#m
e|---------------------------------|---------------------------------|---------------------------------|---------------------------------|
B|-------9-----------9-------------|-------9-----------9-----------4-|-------5-----------5-------------|-------5-----------5-------------|
G|-----9-----------9---------------|-----9-----------9-----------4---|-----6-----------6---------------|-----6-----------6-------------4-|
D|---9-----------9-----------------|---9-----------9-----------4-----|---6-----------6-----------------|---6-----------6-------------6---|
A|-7-----------7-------------------|-7-----------7-----------2-------|-4-----------4-------------------|-4-----------4-------------6-----|
E|---------------------------------|---------------------------------|---------------------------------|-------------------------4-------|
   1 e + a 2 e + a 3 e + a 4 e + a   1 e + a 2 e + a 3 e + a 4 e + a   1 e + a 2 e + a 3 e + a 4 e + a   1 e + a 2 e + a 3 e + a 4 e + a
   A                                 B                                 E           
e|---------------------------------|---------------------------------|---------------------------------|---------------------------------|
B|---------------------------------|---------------------------------|-------9-----------9-------------|-------9-----------9-------------|
G|-------6-----------6-------------|-------8-----------8-------------|-----9-----------9---------------|-----9-----------9---------------|
D|-----7-----------7---------------|-----9-----------9---------------|---9-----------9-----------------|---9-----------9-----------------|
A|---7-----------7-----------------|---9-----------9-----------------|-7-----------7-------------------|-7-----------7-------------------|
E|-5-----------5-------------------|-7-----------7-------------------|---------------------------------|---------------------------------|
   1 e + a 2 e + a 3 e + a 4 e + a   1 e + a 2 e + a 3 e + a 4 e + a   1 e + a 2 e + a 3 e + a 4 e + a   1 e + a 2 e + a 3 e + a 4 e + a

[Pre-Chorus]
   C#m         A                     E           B                     A                                 B                      
e|---------------------------------|---------------------------------|---------------------------------|---------------------------------|
B|-------5-------------------------|-------9-------------------------|---------------------------------|---------------------------------|
G|-----6-------------6-------------|-----9-------------6-------------|-------6-----------6-------------|-------8---------8---------------|
D|---6-------------7---------------|---9-------------9---------------|-----7-----------7---------------|-----9---------------------------|
A|-4-------------7-----------------|-7-------------9-----------------|---7-----------7-----------------|---9-----------9-----------------|
E|-------------5-------------------|-------------7-------------------|-5-----------5-------------------|-7-----------7-------------------|
   1 e + a 2 e + a 3 e + a 4 e + a   1 e + a 2 e + a 3 e + a 4 e + a   1 e + a 2 e + a 3 e + a 4 e + a   1 e + a 2 e + a 3 e + a 4 e + a

[Chorus]
   A          E                  B         C#m
E|---------------------------------|---------------------------------|
E|-------------------9-------------|-------4----------5--------------|
E|-------6---------9---------------|-----4----------6----------------|
E|-----7---------9-----------------|---4----------6------------------|  x3
E|---7---------7-------------------|-2----------4--------------------|
E|-5-------------------------------|---------------------------------|
   1 e + a 2 e + a 3 e + a 4 e + a   1 e + a 2 e + a 3 e + a 4 e + a   

E|---------------------------------|---------------------------------|
E|---------------------------------|---------------------------------|
E|-------6-----------6-------------|-------6-----------6-------------|
E|-----7-----------7---------------|-----9-----------9---------------|
E|---7-----------7-----------------|---9-----------9-----------------|
E|-5-----------5-------------------|-7-----------7-------------------|
   1 e + a 2 e + a 3 e + a 4 e + a   1 e + a 2 e + a 3 e + a 4 e + a   

[Post chorus]
E|---------------------------------|---------------------------------|
E|-------9-------------------------|-------5-------------------------|
E|-----9-------------8-------------|-----6-------------6-------------|
E|---9-------------9---------------|---6-------------7---------------|
E|-7-------------9-----------------|-4-------------7-----------------|
E|-------------7-------------------|-------------5-------------------|