4/10

DIFFICULTY

STANDARD TUNING

NO CAPO

Guitar Chord & Songwriting Cheat Sheet

GUITARZERO2HERO FREEBIE:

CHORD & SONGWRITING CHEAT SHEET

MASTER OVER 200+ CHORDS & MORE - YOU'LL ALSO RECEIVE THE LATEST NEWS & UPDATES FROM GUITARZERO2HERO

CHORD SHAPES

Welcome to this Far Away Guitar Tutorial by Nickelback! This is a really melodic tune and has a great picking riff throughout the verses. Structure wise, the song is incredibly easy to remember.

The only downside for beginners is that this song has a lot of barre chords but that means it’s a good one for practicing your barre chords.

If you’re struggling with the barre chords, be sure to check out my video on the 5 reasons why your barre chords suck https://youtu.be/y5FSu_WqJhg

Enjoy! Like this #faraway video by #nickelback and subscribe to the channel for more videos in the future!

-Dave T

[INTRO]

C   C/E   F   F   x2
Am C F F x2 [Verse 1] C C/E F I've been roaming around, Always looking down at all I see C C/E F Painted faces fill the places I can’t reach Am C F You know that I could use somebody Am C F You know that I could use somebody [Verse 2] C C/E F Someone like you, and all you know, And how you speak C C/E F Countless lovers under cover of the street Am C F You know that I could use somebody Am C F You know that I could use somebody [Chorus] C C/E F F x2 Am C F F x2 [Verse 3] C C/E F Off in the night, while you live it up, I'm off to sleep C C/E F Waging wars to shape the poet and the beat Guitar In Am C F I hope it's gonna make you notice Am C F I hope it's gonna make you notice [Chorus 2] C C/E F Someone like me Ooooahh Ooooahhh Ahhhhh C C/E F Someone like me Ooooahh Ooooahhh Ahhhhh Am C F Someone like me Somebody Ahhhhh Am C F Someone like me Ooooahh Ooooahh Ahhhhh [Bridge] D F# Im ready Now, Im ready Now D Im ready Now, Im ready Now F# Im ready Now, Im ready Now Im ready Now [Solo] C C/E F F Am C F F x4 [Outro] C C/E F I've been roaming around, Always looking down at all I see
[Into lead]
e|-0-0-0-0-0-0-0-0-|-0-0-0-0-0-0-0-0-|
B|-5-5-5-5-5-5-5-5-|-5-5-5-5-5-5-5-5-|
G|-----------------|-----------------|
D|-----------------|-----------------| x6
A|-----------------|-----------------|
E|-----------------|-----------------|

e|--0--0--0--0--0--0--0--0-|--0-----0--0--0--0--0--0--0-|-1------------------|
B|-12-12-12-13-13-13-15-15-|-15b17-15-15-13-13-13-12-12-|-1------------------|
G|-------------------------|----------------------------|--------------------|
D|-------------------------|----------------------------|--------------------|
A|-------------------------|----------------------------|--------------------|
E|-------------------------|----------------------------|--------------------|

[Chorus lead]
e|-0-0-0-0-0-0-0-0-|-0-0-0-0-0-0-0-0-|
B|-5-5-5-5-5-5-5-5-|-5-5-5-5-5-5-5-5-|
G|-----------------|-----------------|
D|-----------------|-----------------| x4
A|-----------------|-----------------|
E|-----------------|-----------------|

e|--0--0--0--0--0--0--0--0-|--0--0--0--0--0--0--0--0-|--0--0--0-0-0-0-0-0-|-0-0-0-0-0-0-0-0-|
B|-12-12-12-13-13-13-15-15-|-12-12-12-13-13-13-15-15-|-10-10-10-8-8-8-8-8-|-3-3-3-1-1-1-1-1-|
G|-------------------------|-------------------------|--------------------|-----------------|
D|-------------------------|-------------------------|--------------------|-----------------|
A|-------------------------|-------------------------|--------------------|-----------------|
E|-------------------------|-------------------------|--------------------|-----------------|

e|--0--0--0--0--0--0--0--0-|--0-----0--0--0--0--0--0--0-|--0--0--0-0-0-0-0-0-|-0-0-0-0-0-0-0-0-|
B|-12-12-12-13-13-13-15-15-|-15b17-15-15-13-13-13-12-12-|-10-10-10-8-8-8-8-8-|-3-3-3-1-1-1-1-1-|
G|-------------------------|----------------------------|--------------------|-----------------|
D|-------------------------|----------------------------|--------------------|-----------------|
A|-------------------------|----------------------------|--------------------|-----------------|
E|-------------------------|----------------------------|--------------------|-----------------|

[Solo Lead]
e|-----| e|---------------------------------------------------------|
B|-----| B|----------------------------6-6-6-6-5-------5b6r5-3------|
G|-2/9-| G|--9-9-9-9/12-12-12-12-5-5-5--------------------------5---|
D|-----| D|---------------------------------------------------------| x4
A|-----| A|---------------------------------------------------------|
E|-----| E|---------------------------------------------------------|

         e|---------------------------------------------------------|
         B|---------------------------------------------------------|
         G|--9-9-9-9/12-12-12-12-----------5------------------------|
         D|----------------------7-7-7-7-7---7-7b9------------------|
         A|---------------------------------------------------------|
         E|---------------------------------------------------------|



2018-04-18T23:47:48+00:00