3/10

DIFFICULTY

STANDARD TUNING

NO CAPO

Guitar Chord & Songwriting Cheat Sheet

GUITARZERO2HERO FREEBIE:

CHORD & SONGWRITING CHEAT SHEET

MASTER OVER 200+ CHORDS & MORE - YOU'LL ALSO RECEIVE THE LATEST NEWS & UPDATES FROM GUITARZERO2HERO

CHORD SHAPES

Welcome to this Hard 2 Face Reality Guitar Tutorial by Poo Bear Feat. Justin Bieber! This song has a really easy and beautiful sounding guitar riff which is just looped over and over throughout the song. We won’t require a capo at all and the song is in simple standard tuning.

Enjoy! Like this #hard2facereality video by #poobear & #justinbieber and subscribe to the channel for more videos in the future!

-Dave T

[Main Riff]
e|---------------------------------|---------------------------------|
B|---------8---------------12------|---------5-----------------------|
G|---------9---------------12------|---------5-----------------------|
D|-----9---------------12----------|-----5---------------------------|
A|-7-----------7---10----------10--|-3-------------------------------|
E|---------------------------------|---------------------------------|
   1   +   2   +   3   +   4   +     1   +   2   +   3   +   4   + 


e|---------------------------10----|---------------------------------|
B|---------8---------------12--12--|---------5-----------------------|
G|---------9-------------12--------|---------5-----------------------|
D|-----9---------------12----------|-----5---------------------------|
A|-7-----------7---10--------------|-3-------------------------------|
E|---------------------------------|---------------------------------|
   1   +   2   +   3   +   4   +     1   +   2   +   3   +   4   + 

[CHORUS]
                               Em             G             C
Sometimes it's hard to face reality           Oh             Oh
                         Em             G             C
Even though you might get mad at me     Oh             Oh
                              Em
Sometimes it's hard to face reality


[Verse]
                              G
Should've been adjusted to my life
C                                              Em
Had the oppurtunity to stay away from the last time
              G                       C
Now you're standing right in front of me
                            Em                       G
It hurts me to know that I lied
C
Trying to protect your feelings
Em                            G
You've been in between the lines
  C
Hope your heart is still in healing


[CHORUS]
                               Em             G             C
Sometimes it's hard to face reality           Oh             Oh
                         Em             G             C
Even though you might get mad at me     Oh             Oh
                              Em
Sometimes it's hard to face reality


[Verse]
                           G
Don't be afraid to stand alone
C
 Don't be afraid to stand outside the door alone
Em                                            G
 I know it's hard to work from home
C
 And it ain't easy all alone
Em                       G
Relationships over the phone
´                        C
Talkin' to your significant other all night long


[CHORUS]
                               Em             G              C 
Sometimes it's hard to face reality           Oh             Oh
                         Em             G              C
Even though you might get mad at me     Oh             Oh
                              Em
Sometimes it's hard to face reality