3/10

DIFFICULTY

STANDARD TUNING

CAPO ON 2ND FRET

Guitar Chord & Songwriting Cheat Sheet

GUITARZERO2HERO FREEBIE:

CHORD & SONGWRITING CHEAT SHEET

MASTER OVER 200+ CHORDS & MORE - YOU'LL ALSO RECEIVE THE LATEST NEWS & UPDATES FROM GUITARZERO2HERO

CHORD SHAPES

Welcome to this So Far Away Guitar Tutorial by Martin Garrix Feat David Guetta! #sofarway is a melodic EDM track with some awesome guitar lines and melody. There’s a wide range of techniques you can learn from this song including fingerpicking, strumming and lead guitar lines. Alot of fun and sounds great in my opinion so give it a shot!

At the end of the video i’ll be playing through the entirety of #sofaraway with a vocal track on top for you to play along to.
Play along and see how you go. ūüôā Enjoy! Like this #sofaraway video by #martixgarrix & #davidguetta and subscribe to the channel for more videos in the future!

-Dave T

--------------------------------------
               CAPO ON 2ND
--------------------------------------
[Intro]
e|-----9-------------------12--12--|---------12--12-------------------|
B|-12----------10----------------12|-----10--------12----10-------10--|
G|---------11----------11----------|----------------------------11--11|
D|---------------------------------|----------------------------------|
A|---------------------------------|----------------------------------|
E|---------------------------------|----------------------------------|

e|-----9-------------------12--12--|---------12--14-------------------|
B|-12----------10----------------12|-----10--------12----10-----------|
G|---------11----------11----------|----------------------------------|
D|---------------------------------|----------------------------------|
A|---------------------------------|----------------------------------|
E|---------------------------------|----------------------------------|


[Verse 1]
Em            G
Light 'em up, light 'em up
                       D               Bm
Tell me where you are, tell me where you are
    Em             G
The summer nights, the bright lights
                  D                   Bm
And the shooting stars, they break my heart


[Pre-Chorus 1]
                Em                  G
I'm calling you now, but you're not picking up
                D                         Bm
Your shadows so close if you are still in love
     Em             G
Then light a match, light a match
                 D               Bm
Baby, in the dark, show me where you are

[Prechorus Tab]
   Esus4       Cadd9             Dsus2           Bm7
e|---------------------------------|---------------------------------|
B|-----0-------------------3---3---|---------3---3-------------------|
G|-2-----------0-----------------2-|-----0---------2-----0-------0---|
D|---------2-----------2-----------|-0-------------------------2---2-|
A|-------------3-------------------|-------------2-------------------|
E|-0-------------------------------|---------------------------------|
   1   +   2   +   3   +   4   +     1   +   2   +   3   +   4   +   

   Esus4       Cadd9             Dsus2             
e|---------------------------------|-------------0-------------------|
B|-----0-------------------3---3---|---------3-----------------------|
G|-2-----------0-----------------2-|-----0---------2-----0-----------|
D|---------2-----------2-----------|-0-------------------------------|
A|-------------3-------------------|---------------------------------|
E|-0-------------------------------|---------------------------------|
   1   +   2   +   3   +   4   +     1   +   2   +   3   +   4   +   

[Chorus]
Em   G
 Oh, love
               D                Bm
How I miss you every single day when I see you on those streets
Em  G
 Oh, love
                  D                Bm
Tell me there's a river I can swim that will bring you back to me
Em                          G                 D
 'Cause I don't know how to love someone else
             Bm
I don't know how to forget your face
Em   G
 Oh, love
                D                   Bm
God, I miss you every single day and now you're so far away


[Drop]
Em G D Bm x2
e|-----9-------------------12--12--|---------12--12-------------------|
B|-12----------10------10--------12|-----10--------12----10-----------|
G|---------11----------------------|----------------------------------|
D|---------------------------------|----------------------------------|
A|---------------------------------|----------------------------------|
E|---------------------------------|----------------------------------|

e|-----9-------------------12--12--|---------12--14-------------------|
B|-12----------10------10--------12|-----10--------12----10-----------|
G|---------11----------------------|----------------------------------|
D|---------------------------------|----------------------------------|
A|---------------------------------|----------------------------------|
E|---------------------------------|----------------------------------|


[Verse 2]
     Em               G
It's breaking me, I'm losing you
                 D               Bm
We were far from perfect, but we were worth it
   Em                G                              D
Too many fights, and we cried, but never said we're sorry
            Bm
Stop saying you love me


[Pre-Chorus 2]
                  Em               G
You're calling me now, but I can't pick up
                  D              Bm
Your shadow's too close, and I'm still in love
                  Em            G                           D
The summer's over now, but somehow, it still breaks my heart
                      Bm
We could have had the stars, oh


[Chorus]
Em   G
 Oh, love
               D                Bm
How I miss you every single day when I see you on those streets
Em   G
 Oh, love
                  D                Bm
Tell me there's a river I can swim that will bring you back to me
Em                         G                 D
'Cause I don't know how to love someone else
                    Bm
I don't know how to forget your face
Em   G
 Oh, love
                D                    Bm
God, I miss you every single day and now you're so far away


[Drop]
Em G D Bm x2


[Post-Chorus]
            Em  G   D   Bm
So far away
            Em  G   D   Bm
So far away
                 Em  G   D   Bm
Oh, so far away
            Em  G   D   Bm
So far away


[Outro]
Em   G
 Oh, love
               D                     Bm
How I miss you every single day when I see you on those streets
Em   G
 Oh, love
                  D                Bm
Tell me there's a river I can swim that will bring you back to me
Em                         G                 D
'Cause I don't know how to love someone else
                    Bm
I don't know how to forget your face
Em   G
 Oh, love
                D                     Bm              Em
God, I miss you every single day when you're so far away