4/10

DIFFICULTY

DROP D TUNING

NO CAPO

Guitar Chord & Songwriting Cheat Sheet

GUITARZERO2HERO FREEBIE:

CHORD & SONGWRITING CHEAT SHEET

MASTER OVER 200+ CHORDS & MORE - YOU'LL ALSO RECEIVE THE LATEST NEWS & UPDATES FROM GUITARZERO2HERO

Welcome to Throwback Thursday’s where I teach you a song from the last 4-5 decades! This week, by request, I’ll be covering a Pieces Guitar Tutorial from Sum 41. For this particular lesson i’ll be running through the rhythm guitar as well as the guitar solo in the bridge.

At the end of the video i’ll be playing through the entirety of #pieces with a vocal track on top for you to play along to.

Enjoy! Like this #pieces video by #sum41 and subscribe to the channel for more videos in the future!

-Dave T

[Verse]
e|-1---------------|-----------------|-----------------|-----------------|
B|-3---------------|-----------------|-----------------|-----------------|
G|-2---------------|-----------------|-----------------|-----------------|
D|-0---------------|-10--------------|-3---------------|-2---------------|
A|-0---------------|-8---------------|-3---------------|-3---------------|
D|-0---------------|-8---------------|-3---------------|-2---------------|
   D---D--U-UD-D-DU  D---D--U-UD-D-DU  D---D--U-UD-D-DU  D---D--U-UD-D-DU

[Chorus]
e|------------------|------------------|------------------|------------------|
B|------------------|------------------|------------------|------------------|
G|-3----------------|------------------|------------------|------------------|
D|-3--X4 STRUM PATS-|------------------|-3--X2 STRUM PATS-|-2--X2 STRUM PATS-| x2
A|-1----------------|------------------|-3----------------|-3----------------|
D|------------------|------------------|-3----------------|-2----------------|
   D-D-D-DU D-D-D-DU  D-D-D-DU D-D-D-DU  D-D-D-DU D-D-D-DU  D-D-D-DU D-D-D-DU

[Bridge Rhythm]
e|-----------------|-----------------|
B|-----------------|-----------------|
G|-----------------|-3-3-3-3-3-3-3-5-|
D|-3-3-3-3-3-3-3-3-|-3-3-3-3-3-3-3-5-|  x2
A|-3-3-3-3-3-3-3-3-|-1-1-1-1-1-1-1-3-|
D|-3-3-3-3-3-3-3-3-|-----------------|

e|-------------------|-------------------|
B|-------------------|-------------------|
G|-7-7-7-77-5-5-5-55-|-3-3-3-33----------|
D|-7-7-7-77-5-5-5-55-|-3-3-3-33-3-3-3-33-|   x2
A|-5-5-5-55-3-3-3-33-|-1-1-1-11-3-3-3-33-| 
D|-------------------|----------3-3-3-33-| 
   D-D-D-DU D-D-D-DU   D-D-D-DU D-D-D-DU
e|-----------------|-----------------| 
B|-----------------|-----------------|
G|-----------------|-----------------|
D|-7-7-7-7-7-7-7-7-|-7-7-7-7-7-7-7-7-|
A|-7-7-7-7-7-7-7-7-|-7-7-7-7-7-7-7-7-|
E|-7-7-7-7-7-7-7-7-|-7-7-7-7-7-7-7-7-|   

[Solo]
e|-------------------------------------------------|
B|-10-10-10-11-10-10-10-11-10-10-10-11-13-13-13-13-|
G|-10-10-10-10-10-10-10-10-10-10-10-10-10-10-10-10-|
D|-------------------------------------------------|  x2
A|-------------------------------------------------|
D|-------------------------------------------------|

e|-------8----------8------------------------------|
B|-10-----------9---------------10-----------10----|
G|----10----------9-------10--------------10----10-|
D|---------------------------12--------10----------|  x2
A|-------------------------------------------------|
D|-------------------------------------------------|

e|-------------------------------------|
B|-8-8-8-10-8-8-8-10-8-8-8-10-8-8-8-10-|
G|-9-9-9-9--9-9-9-9--9-9-9-9--9-9-9-9--|
D|-------------------------------------|
A|-------------------------------------|
D|-------------------------------------|