4/10

DIFFICULTY

STANDARD TUNING

NO CAPO

Guitar Chord & Songwriting Cheat Sheet

GUITARZERO2HERO FREEBIE:

CHORD & SONGWRITING CHEAT SHEET

MASTER OVER 200+ CHORDS & MORE - YOU'LL ALSO RECEIVE THE LATEST NEWS & UPDATES FROM GUITARZERO2HERO

CHORD SHAPES

Christmas is right around the corner! So I thought i’d share an easy fingerstyle rendition of the famous Christmas Carol – Silent Night in the key of G.

This Silent Night guitar tutorial is a perfectly easy track and is great for beginners getting into fingerstyle guitar lessons. You can find more fingerstyle lessons like this in my GuitarZero2Hero Premium guitar course. Enrolment is currently closed but to find out more just head to my website.

Enjoy! Like this #silentnight video and subscribe to the channel for more videos in the future!

-Dave T

  G
|-------0-----|-------------|-------0-----|-------------|
|-3-------3---|-0-----------|-3-------3---|-0-----------|
|-0---0-------|-0-------0---|-0---0-------|-0-------0---|
|-------------|-----0-------|-------------|-----0-------|  
|-------------|-------------|-------------|-------------|
|-3-----------|-3-----------|-3-----------|-3-----------|

  D             D7            G
|-5-------5---|-2-----------|-3-------3---|-------------|
|-3-----------|-1---0-------|-3-------3---|-3-----------|
|-2-----------|-2-------2---|-0---0-------|-----0-------|
|-0---0-------|-0-----------|-------------|---------0---|
|-------------|-------------|-------------|-------------|
|-------------|-------------|-3-----------|-3-----------|

  C                           G
|-0-------0---|-3-----2-0---|-------0-----|-------------|
|-1-----1-----|-1-----------|-3-------3---|-0-----------|
|-0---0-------|-0---0-------|-0---0-------|-0-------0---|   x2
|-------------|-------------|-------------|-----0-------|
|-3-----------|-3-----------|-------------|-------------|
|-------------|-------------|-3-----------|-3-----------|

  D                           G                   
|-5-------5---|-8-----5-----|-3-------3/--|-7-----------|
|-3-----------|-7-------7---|-0-----------|-8-----------|
|-2-----------|-5-----------|-0-----------|-0-----------|
|-0---0-------|-0---0-------|-------------|-0-----------|
|-------------|-------------|-------------|-------------|
|-------------|-------------|-3-----------|-------------|

  G             D             G
|-3-----------|-------------|-------------|-------------|
|-3---3---0---|-3----1------|-------------|-------------|
|-0-----------|-2------2----|-0-----------|-------------|
|-------------|-0-----------|-------------|-------------|
|-------------|-------------|-------------|-------------|
|-3-----------|-------------|-3-----------|-------------|

2017-12-14T11:38:24+00:00