4/10

DIFFICULTY

STANDARD TUNING

CAPO ON 3RD FRET

Guitar Chord & Songwriting Cheat Sheet

GUITARZERO2HERO FREEBIE:

CHORD & SONGWRITING CHEAT SHEET

MASTER OVER 200+ CHORDS & MORE - YOU'LL ALSO RECEIVE THE LATEST NEWS & UPDATES FROM GUITARZERO2HERO

CHORD SHAPES

Welcome to this Real Friends Guitar Tutorial by Camila Cabello! #realfriends is an great pop tune with an awesome fingerpicking riff and a great lead guitar lick. It’s a really simple song to play, with a 5 chords throughout the whole song. In this video i’ll show you the studio version, a super easy way of playing it and also the lead licks in the song! Everything you need to know is in this video lesson!

At the end of the video i’ll be playing through the entirety of #realfriends with a vocal track on top for you to play along to. My awesome friend Clancy has provided the vocals with her amazing voice be sure to check out her channel and subscribe 🙂

CLANCY’S CHANNEL – https://www.youtube.com/channel/UCzZhv054xOkHLCnQKlmqL7w

Play along and see how you go. 🙂 Enjoy! Like this #realfriends video by #camilacabello and subscribe to the channel for more videos in the future!

-Dave T

--------------------------------------
               CAPO ON 3RD
--------------------------------------

[Verse/Chorus]
   Am7                               Dm7
e|---------x---------------x-------|-------1-x---------------1h3p1----|
B|-------1-x-------------1-x-------|-------1-x---------------1----1---|
G|-------0-x-------------0-x-------|---------x-------------2----------|
D|---------x---------------x-------|-0-------x-------0-------x--------|
A|-0-------x-------0-------x-------|---------x---------------x--------|
E|---------x---------------x-------|---------x---------------x--------|
   1 e + a 2 e + a 3 e + a 4 e + a   1 e + a 2 e + a 3 e + a 4 e  + a 

   G                                 C               Cmaj9/B
e|---------x---------------x-------|-------0-x-------------0-x-------|
B|-------0-x-------------0-x-------|-------1-x-------------1-x-------|
G|-------0-x-------------0-x-------|---------x---------------x-------|
D|---------x---------------x-------|---------x---------------x-------|
A|---------x---------------x-------|-3-------x-------2-------x-------|
E|-3-------x-------3-------x-------|---------x---------------x-------|
   1 e + a 2 e + a 3 e + a 4 e + a   1 e + a 2 e + a 3 e + a 4 e + a 

[Quiet Verse]
   Am7                               Dm7
e|---------------------------------|-------1-----------------1h3p1----|
B|-------1---------------1---------|-------1-----------------1----1---|
G|-------0---------------0---------|-----------------------2----------|
D|---------------------------------|-0---------------0----------------|
A|-0---------------0---------------|----------------------------------|
E|---------------------------------|----------------------------------|
   1 e + a 2 e + a 3 e + a 4 e + a   1 e + a 2 e + a 3 e + a 4 e  + a 

   G                                 C               Cmaj9/B
e|---------------------------------|-------0---------------0---------|
B|-------0---------------0---------|-------1---------------1---------|
G|-------0---------------0---------|---------------------------------|
D|---------------------------------|---------------------------------|
A|---------------------------------|-3---------------2---------------|
E|-3---------------3---------------|---------------------------------|
   1 e + a 2 e + a 3 e + a 4 e + a   1 e + a 2 e + a 3 e + a 4 e + a 

[Post Chorus Lead]
e|----------------------------------------------|
B|-------8/10-8------8--8/10-8------------------|
G|-----5---------7/9------------7/9-7/9-7-------|
D|-5h7------------------------------------------|
A|----------------------------------------------|
E|----------------------------------------------|

e|----------------------------------------------|
B|-------8/10-8------8--8/10-8------------------|
G|-----5---------7/9------------7/9-7/9-5-------|
D|-5h7------------------------------------------|
A|----------------------------------------------|
E|----------------------------------------------|

--------------------------------------
               CAPO ON 3RD
--------------------------------------

[Intro]
Am7   Dm7   G   C  C/B


[Verse 1]
Am7                       Dm7
No I think I'll stay in tonight
G                                       C       C/B
Skip the conversations and the "oh, I'm fine’s”
Am7                      Dm7
No I'm no stranger to surprise
     G                                    C    C/B
This paper town has let me down too many times

         Am7                 Dm7
Why do I even try, give me a reason why
  G                                     C    C/B
I thought that I could trust you, never mind
            Am7                          Dm7
Why all the switching sides, where do I draw the line?
  G                                 C   C/B
I guess I'm too naive to read the signs


[Chorus 1]
                          Am7
I'm just lookin' for some real friends
                    Dm7
All they ever do is let me down
                     G
Every time I let somebody in
                             C         C/B
Then I find out what they're all about

                          Am7
I'm just lookin' for some real friends
                         Dm7
Wonder where they're all hidin' out
                          G
I'm just lookin' for some real friends
                    C         C/B
Gotta get up out of this town


[Post-Chorus 1]
Am7 Dm7   
        Oh    
G   C        C/B
        Yeah


[Verse 2]
   Am7                    Dm7
I stay up, talkin' to the moon
     G                                 C    C/B
Been feelin' so alone in every crowded room
Am7                                  Dm7
Can't help but feel like something's wrong, yeah
G                                   C
'Cause the place I'm livin' in just doesn't feel like home


[Chorus 2]
                          Am7
I'm just lookin' for some real friends
                    Dm7
All they ever do is let me down
                     G
Every time I let somebody in
                             C         C/B
Then I find out what they're all about

                          Am7
I'm just lookin' for some real friends
                         Dm7
Wonder where they're all hidin' out
                          G
I'm just lookin' for some real friends
                    C         C/B
Gotta get up out of this town


[Post-Chorus 2]
Am7 Dm7   
        Oh    
G   C                    C/B
        Lookin' for some real friends
Am7 Dm7   
        Ahh-ahh   
G   C        C/B
        Ahh-ahh


[Bridge]
Am7                                                Dm7
I just wanna talk about nothin' with somebody that means something
G                                                                 C                C/B
Spell the names of all our dreams and demons for the times that I don't understand
Am7                                                   Dm7
Tell me what's the point of a moon like this when I'm alone again?
G                                                  C
Can I run away to somewhere beautiful where nobody knows my name?


[Chorus 3]
                          Am7
I'm just lookin' for some real friends
                    Dm7
All they ever do is let me down
                     G
Every time I let somebody in
                            C         C/B
But I find out what they're all about

                          Am7
I'm just lookin' for some real friends
                    Dm7
All they ever do is let me down
                     Am
I'm lookin' for some real friends
                    C           C/B
Gotta get up out of this town, yeah


[Outro]
Am7 Dm7   
       Oh (ahh-ahh)    
G   C       C/B
       Ahh-ahh
Am7 Dm7   
       Yeah    
G   C          
       Ahh-ah