BLOOM – THE PAPER KITES GUITAR LESSON

6/10

DIFFICULTY

STANDARD TUNING

CAPO ON 6TH

Guitar Chord & Songwriting Cheat Sheet

GUITARZERO2HERO FREEBIE:

CHORD & SONGWRITING CHEAT SHEET

MASTER OVER 200+ CHORDS & MORE

CHORD SHAPES

Welcome to this Bloom Guitar Tutorial by a band local to where I live – The Paper Kites! #bloom is probably one of the most beautiful sounding fingerpicking riffs you will hear and once you learn it, I guarantee you it’ll be the first thing you play anytime you pick up a new acoustic guitar. Now the fingerpicking pattern is slightly complex in some parts, but the majority of it is a repeated picking pattern. I suggest you begin learning this slowly and then build up your speed over time. I’ll also be teaching you how to play all the lead guitar lines in this in depth video so pay attention and have fun!

At the end of the video i’ll be playing through most  of #bloom with vocals on top for some context. Play along and see how you go. 🙂 Enjoy! Like this #bloom video by #thepaperkites and subscribe to the channel for more videos in the future!

-Dave T

--------------------------------------------------
               CAPO ON 6TH FRET
--------------------------------------------------

[Main Riff]
   Am                                C 
e|---------------------------------|---------------------------------| 
B|-1---------1-----1---------------|-------1-------1-------1---------| 
G|-------0---------------0-------0-|-----------0---------0-----0-----| 
D|-----2-------2-------2-------0---|-----0-------0---0h2-----2---0---| 
A|-0-------0-------0-------0h2-----|-2h3-----3-----------------------| 
E|---------------------------------|---------------------------------| 
 
   G 
e|---------------------------------|---------------------------------| 
B|-3---------3-----1---------1-----|-0---------0-----0---------0-----| 
G|-------0---------------0---------|-------0---------------0---------| 
D|-----0-------0-------0-------0---|-----0-------0-------0-------0---| 
A|---------------------------------|---------------------------------| 
E|-3-------3-------3-------3-------|-3-------3-------3-------3-------| 

[Intro Lower Octave]
e|-----------------------------------------| 
B|-----------------------------------------| 
G|-----2/4—2p0--------2/4—2p0--------------| 
D|-2------------2--------------0-----------| 
A|-----------------------------------------| 
E|-----------------------------------------| 

[Intro Higher Octave]
e|-----5/7-5p3--------5/7-5p3--------------| 
B|-5------------5--------------3-----------| 
G|-----------------------------------------| 
D|-----------------------------------------| 
A|-----------------------------------------| 
E|-----------------------------------------| 

[Solo Lower Octave]
e|----------------------|----------------------|------------------------|----------------------| 
B|----------------------|----------------------|------------------------|----------------------| 
G|----------------------|----------------------|------------------------|----------------------| 
D|---------5------------|---------5------------|---------5--------7-7/9-|---------5------------| 
A|-----5h7----7--5------|-----5h7----7--5------|-----5h7----7--5--------|-----5h7----7--5------| 
E|-5/7-------------/7---|-5/7-------------/7---|-5/7--------------------|-5/7-------------/7---| 
 
e|---------------------------------------------------| 
B|---------------------------------------------------| 
G|-------0--0h2—2/4--------2/4—2p0--------2/4—2p0----| 
D|-0--2----------------2------------2--------------0-|   x2 
A|---------------------------------------------------| 
E|---------------------------------------------------| 

[Solo Higher Octave]
e|---------3------------|---------3------------|---------3--------5-5/7-|--------3-------------| 
B|-----3h5----5--3------|-----3h5----5--3------|-----3h5----5--3--------|----3h5----5--3-------| 
G|-2/4-------------/4---|-2/4-------------/4---|-2/4--------------------|-2/4-------------/4---| 
D|----------------------|----------------------|------------------------|----------------------| 
A|----------------------|----------------------|------------------------|----------------------| 
E|----------------------|----------------------|------------------------|----------------------| 
 
e|-------3--3h5-5/7--------5/7-7p5--------5/7-7p5----| 
B|-3--5----------------5------------5--------------3-| 
G|---------------------------------------------------| 
D|---------------------------------------------------|   x2 
A|---------------------------------------------------| 
E|---------------------------------------------------| 
2017-11-30T05:33:34+00:00