4/10

DIFFICULTY

STANDARD TUNING

CAPO ON 3RD

Guitar Chord & Songwriting Cheat Sheet

GUITARZERO2HERO FREEBIE:

CHORD & SONGWRITING CHEAT SHEET

MASTER OVER 200+ CHORDS & MORE - YOU'LL ALSO RECEIVE THE LATEST NEWS & UPDATES FROM GUITARZERO2HERO

CHORD SHAPES

Welcome to this Flicker Guitar Tutorial by Niall Horan! #flicker is Niall’s title track off his new album Flicker – I’ve really been enjoying the easy to listen to tunes he’s been making. In this video i’ll teach you the chords and fingerpicking to this song which is fairly easy! We’ll also be using the same strumming pattern throughout the whole song.

At the end of the video i’ll be playing through all of #flicker with vocals on top for some context. Play along and see how you go. ūüôā Enjoy! Like this #flicker video by #niallhoran and subscribe to the channel for more videos in the future!

-Dave T

--------------------------------------------------
               CAPO ON 3RD FRET
--------------------------------------------------

[Main Riff]
   Am7       G/B       C                    F
e|----------------------------------------|----------------------------------------|
B|-1---1-----3---3-----5---5-----5--------|----------------------------------------|
G|---0---------0---------0-----------0----|-2---2-----2---2-----2---2-----2---2----|
D|--------------------------------------0-|---3---------3---------3---------3------|
A|-0-----0---2-----2---3-----3---3--------|----------------------------------------|
E|----------------------------------------|-1-----1---1-----1---1-----1---1-----1--|

   Am7       G/B       C                    F
e|----------------------------------------|----------------------------------------|
B|-1---1-----3---3-----5---5-----5--------|----------------------------------------|
G|---0---------0---------0-----------0----|-2---2-----2---2-----2------------------|
D|--------------------------------------0-|---3---------3--------------------------|
A|-0-----0---2-----2---3-----3---3--------|----------------------------------------|
E|----------------------------------------|-1-----1---1-----1---1------------------|


[Intro]
Am7 Gadd11 C F
Am7 Gadd11 C F

[Verse 1]
         C
When you feel your love's been taken
         Em
When you know there's something missing
       Am          Gadd11         Fmaj7
In the dark, we're barely hangin' on
         C
Then you rest your head upon my chest
        Em
And you feel like there ain't nothing left
       Am          Gadd11         Fmaj7  C/F
So I'm afraid that what we had is gone


[Chorus]
                    F
Then I think of the start
          C
And it echoes a spark
        Am         Gadd11     C       Fmaj7   C/F
And I remember the magic and electricity
                  F
Then I look in my heart
                C
There's a light in the dark
        Am         Gadd11        C             Fmaj7   C/F
Still a flicker of hope that you first gave to me
            Dm
And I wanna keep


[Break]
             Am7 Gadd11 C F
Please don't leave
             Am7 Gadd11 C F
Please don't leave


[Verse 2]
         C
When you lay there and you're sleeping
         Em
Hear the patterns of your breathing
      Am                     Gadd11        Fmaj7
And I tell you things you've never heard before
       C
Asking questions to the ceiling
      Em
Never knowing what you're thinking
           Am          Gadd11         Fmaj7  C/F
'Cause I'm afraid that what we had is gone


[Chorus]
                    F
Then I think of the start
          C
And it echoes a spark
        Am         Gadd11     C       Fmaj7   C/F
And I remember the magic and electricity
                  F
Then I look in my heart
                C
There's a light in the dark
        Am         Gadd11        C             Fmaj7   C/F
Still a flicker of hope that you first gave to me
            Dm
And I wanna keep


[Break]
             Am7 Gadd11 C F
Please don't leave
             Am7 Gadd11 C F
Please don't leave


[Bridge]
    Am7  Gadd11  C       F
And I   want    this to pass
    Am7  Gadd11  C          F
And I   hope    this won't last
        Dm
Last too long


[Chorus]
                    F
Then I think of the start
          C
And it echoes a spark
        Am         Gadd11     C       Fmaj7   C/F
And I remember the magic and electricity
                  F
Then I look in my heart
                C
There's a light in the dark
        Am         Gadd11        C             Fmaj7   C/F
Still a flicker of hope that you first gave to me
            Dm
And I wanna keep


[Outro]
             Am7 Gadd11 C F
Please don't leave
             Am7 Gadd11 C F
Please don't leave