4/10

DIFFICULTY

STANDARD TUNING

NO CAPO

Guitar Chord & Songwriting Cheat Sheet

GUITARZERO2HERO FREEBIE:

CHORD & SONGWRITING CHEAT SHEET

MASTER OVER 200+ CHORDS & MORE - YOU'LL ALSO RECEIVE THE LATEST NEWS & UPDATES FROM GUITARZERO2HERO

CHORD SHAPES

Welcome to this Too Much To Ask Guitar Tutorial by Niall Horan! #toomuchtoask is Niall’s latest single from his upcoming album Flicker – and really been enjoying the easy to listen to tunes he’s been making. In this video i’ll teach you the chords and also the lead guitar solo in the bridge which is an easy one for beginners.

At the end of the video i’ll be playing through all of #toomuchtoask with vocals on top for some context. Play along and see how you go. 🙂 Enjoy! Like this #toomuchtoask video by #niallhoran and subscribe to the channel for more videos in the future!

-Dave T


[Post Chorus 1 Lead] 
e|------------------|-------------------8p7--| 
B|-10-13-----13\8---|-10-13-----13\8---------| 
G|------------------|------------------------| 
D|------------------|------------------------| 
A|------------------|------------------------| 
E|------------------|------------------------| 
 
[Solo]
e|----------------------------------------------------------| 
B|------------13-------------------13--15-15----12--13------| 
G|-14---14-12-------------------12--------------------------| 
D|----------------------------------------------------------| 
A|----------------------------------------------------------| 
E|----------------------------------------------------------| 
 
e|----------------------------------------------------------| 
B|------------13------13-15-15/17---17-15-12----12-13-------| 
G|-14---14-12------12---------------------------------14p12-| 
D|----------------------------------------------------------| 
A|----------------------------------------------------------| 
E|----------------------------------------------------------| 
 
e|----------------------------------------------------------| 
B|----------------------------------------------------------| 
G|-14---14-12-----------------------------------------------| 
D|------------14----14-14---/14-14-14-14--12--9----9-10-----| 
A|----------------------------------------------------------| 
E|----------------------------------------------------------| 

[Intro]
Am G C

[Verse]
Am        G            C
 Waiting here for someone
Am           G                   C
 Only yesterday we were on the run
Am               G               C
 You smile back at me and your face lit up the sun
       Am        G            C
Now I'm waiting here for someone

[Pre-Chorus]
     Dm C   Dm             C
And, oh love until you feel this rough
Dm           C                  G
 Why's it only you I'm thinking of

[Chorus]
F          C
 My shadows dancing
Am          G
 Without you for the first time
F           C
 My heart is hoping
Am              G
 You'll walk right in tonight
F                               C
Tell me there are things that you regret
Am                             G
Cause if I'm being honest I ain't over you yet
F           C
 It's all I'm asking
Am             G
 Is it too much to ask?
F C Am             G
     Is it too much to ask?
F C Am G

[Verse 2]
Am         G        C
 Someone's moving outside
Am              G                  C
 The lights come on and down the drive
Am                   G                     C
 I forget you're not here when I close my eyes
Am              G           C
 Do you still think of me sometimes?

[Pre-Chorus]
     Dm C    Dm            C
And, oh love, watch the sun comeing up 
Dm             C              G        E/G#
 Don’t it feel fucked we're not in love

[Chorus 2]
F           C
 The shadows dancing
Am           G
 Without you for the first time
F           C
 My heart is hoping
Am                 G
 You'll walk right in tonight
F                              C
Tell me there are things that you regret
Am                            G
Cause if I'm being honest I ain't over you yet
F           C
 It's all I'm asking
Am             G
 Is it too much to ask?

[Solo] 
F C Am G 
F C Am G 
F C Am G 

[Chorus 3]
F           C
 The shadows dancing
Am           G
 Without you for the first time
F           C
 My heart is hoping
Am             G
 You'll walk right in tonight
F                              C
Tell me there are things that you regret
Am                            G
Cause if I'm being honest I ain't over you yet
F           C
 It's all I'm asking
Am             G
 Is it too much to ask?
F           C
 The shadows dancing
Am           G
 Without you for the first time
F           C
 My heart is hoping
Am             G
 You'll walk right in tonight
F                              C
Tell me there are things that you regret
Am                            G
Cause if I'm being honest I ain't over you yet
F           C
 It's all I'm asking
Am             G
 Is it too much to ask?

[Outro]
F           C
 It's all I'm asking
Am             G
 Is it too much to ask?
F           C
 It's all I'm asking
Am             G
 Is it too much to ask?