5/10

DIFFICULTY

STANDARD TUNING

CAPO ON 2ND FRET

Guitar Chord & Songwriting Cheat Sheet

GUITARZERO2HERO FREEBIE:

CHORD & SONGWRITING CHEAT SHEET

MASTER OVER 200+ CHORDS & MORE - YOU'LL ALSO RECEIVE THE LATEST NEWS & UPDATES FROM GUITARZERO2HERO

CHORD SHAPES

Welcome to Throwback Thursday’s where I teach you a classic hit from the last 4-5 decades! This week, by request, I’ll be covering a As Long As You Love Me Guitar Tutorial from Justin Bieber! For this particular lesson i’ll be running through the acoustic version of the song off his acoustic album Believe. Chord and structure wise, this is an incredibly easy song and is based off just 3 chord shapes. What makes this song difficult though, are the picking patterns and strumming patterns used throughout at a challenging speed. If you’re after something to test your speed and accuracy this is a great song to try.

At the end of the video i’ll be playing through the entirety of #aslongasyouloveme with a vocal track on top for you to play along to. Enjoy! Like this #aslongasyouloveme video by #justinbieber and subscribe to the channel for more videos in the future!

-Dave T

---------------------------------------------------------------------
          CAPO ON 2ND FRET (3RD FOR RECORDED VERSION)
---------------------------------------------------------------------
[Intro] 
e|---------0-------|---------1---1---|---------3---3---|-----------------| 
B|-----1-------1---|-----1---1---1---|---------3---3---|---------0h1p0---| 
G|-------2---------|---------2---2---|-----0---0---0---|-----0---------0-| 
D|---2-------------|-------3-3---3---|---0---0-0---0---|---0---0---------|   X2
A|-0---------------|---3-----3---3---|---------2---2---|-----------------| 
E|-----------------|-1-------1---1---|-3-------3---3---|-3---------------| 
   1 + 2 + 3 + 4 +   1 + 2 + 3 + 4 +   1 + 2 + 3 + 4 +   1 + 2 + 3 + 4 + 
 
[Verse] 
e|---------0---0---|---------1---1---|---------3---3---|-----------------| 
B|-----1---1---1---|-----1---1---1---|---------3---3---|---------0h1p0---| 
G|-------2-2---2---|---------2---2---|-----0---0---0---|-----0---------0-| 
D|---2-----2---2---|-------3-3---3---|---0---0-0---0---|---0---0---------| 
A|-0-------0---0---|---3-----3---3---|---------2---2---|-----------------| 
E|-----------------|-1-------1---1---|-3-------3---3---|-3---------------| 
   1 + 2 + 3 + 4 +   1 + 2 + 3 + 4 +   1 + 2 + 3 + 4 +   1 + 2 + 3 + 4 + 
[Verse Variation] 
e|---------0---0---|---------1---1---|---------3-------|-3-------3-------| 
B|-----1---1---1---|-----1---1---1---|-----------3-----|---3-------3-----| 
G|-------2-2---2---|---------2---2---|-----0-------0---|-----0-------0---| 
D|---2-----2---2---|-------3-3---3---|---0---0-------0-|-------0-------0-| 
A|-0-------0---0---|---3-----3---3---|-----------------|-----------------| 
E|-----------------|-1-------1---1---|-3---------------|-----------------|

------------------------------------------------------------------------
            CAPO ON 2ND FRET (3RD FRET FOR RECORDED VERSION
------------------------------------------------------------------------

[Intro]
               Am        F        G 
As long as you love me
               Am        F        G 
As long as you love me


[Verse]
Am                 F
We're under pressure,
G
Seven billion people in the world trying to fit in
Am              F
Keep it together,
G
Smile on your face even though your heart is frowning
Am         F             G
But hey now, you know, girl,

We both know it's a cruel world
Am         F          G
  But I will take my chances


[Prechorus]
               Am
As long as you love me
F                                 G  
We could be starving, we could be homeless, we could be broke
       Am
As long as you love me
       F                            G     
I'll be your platinum, I'll be your silver, I'll be your gold


[Chorus]
               Am                            
As long as you Loh, Loh, Loh, Loh, Loh, Loh, 
F                   G
Loh,Loh,Loh,Loh,Loh,Love,Love,Loh,Loh,Loh,Loh,Love me, love me
               Am                            
As long as you Loh, Loh, Loh, Loh, Loh, Loh, 
F                   G                          Am
Loh,Loh,Loh,Loh,Loh,Love,Love,Loh,Loh,Loh,Loh,Love me, love me


[Verse 2]
Am              F
   I'll be your soldier,
G
Fighting every second of the day for your dreams, girl
Am             F
  I'll be your Hova
G
You can be my Destiny's Child on the scene girl
Am               F          G
  So don't stress, don't cry, we don't need no wings to fly
Am         F      G
  Just take my hand


[Prechorus]
               Am
As long as you love me
F                                 G  
We could be starving, we could be homeless, we could be broke
       Am
As long as you love me
       F                            G     
I'll be your platinum, I'll be your silver, I'll be your gold


[Chorus]
               Am                            
As long as you Loh, Loh, Loh, Loh, Loh, Loh, 
F                   G
Loh,Loh,Loh,Loh,Loh,Love,Love,Loh,Loh,Loh,Loh,Love me, love me
               Am                            
As long as you Loh, Loh, Loh, Loh, Loh, Loh, 
F                   G
Loh,Loh,Loh,Loh,Loh,Love,Love,Loh,Loh,Loh,Loh,Love me, love me


[Verse 3]
Am                                  F                       G
I don't know if this makes sense but, you're my hallelujah
Am                                  F                       G
Give me a time and place, I'll rendezvous it
Am                                  F                       G
I'll fly you to it, I'll beat you there
Am                                  F                       G
Girl, you know I got you
Am                                  F                       G
Us, trust, a couple things I can't spell without U
Am                                  F                       G
Now we on top of the world, cause that's just how we do
Am                                  F                       G
Use to tell me sky's the limit, now the sky's our point of view
Am                                  F                       G
Man, we stepping out like woa (Oh God!), cameras point and shoot
Am                                  F                       G
Ask me 'what's my best side?', I stand back and point at you
Am                                  F                       G
You the one that I argue with, feel like I need a new girl to be bothered with
Am                                  F                       G
But, the grass ain't always greener on the other side, it's green where you water it
Am                                  F                       G
So I know, we got issues baby, true, true, true
Am                                  F                       G
But I'd rather work on this you than to go ahead and start with someone new


[Prechorus]
               Am
As long as you love me
F                                 G  
We could be starving, we could be homeless, we could be broke
       Am
As long as you love me
       F                            G     
I'll be your platinum, I'll be your silver, I'll be your gold


[Chorus]
               Am                            
As long as you Loh, Loh, Loh, Loh, Loh, Loh, 
F                   G
Loh,Loh,Loh,Loh,Loh,Love,Love,Loh,Loh,Loh,Loh,Love me, love me
               Am                            
As long as you Loh, Loh, Loh, Loh, Loh, Loh, 
F                   G
Loh,Loh,Loh,Loh,Loh,Love,Love,Loh,Loh,Loh,Loh,Love me, love me
2017-08-17T00:11:39+00:00