6.5/10

DIFFICULTY

DROP D TUNING

NO CAPO

Guitar Chord & Songwriting Cheat Sheet

GUITARZERO2HERO FREEBIE:

CHORD & SONGWRITING CHEAT SHEET

MASTER OVER 200+ CHORDS & MORE - YOU'LL ALSO RECEIVE THE LATEST NEWS & UPDATES FROM GUITARZERO2HERO

Welcome to Throwback Thursday’s where I teach you a classic hit from the last 4-5 decades! This week I’ll be covering a Your Body Is A Wonderland Guitar Tutorial from John Mayer!

Your Body Is a Wonderland is a deceptively hard song to play. It’s completely fingerpicked and the verse/chorus is easy enough, but once we get to the bridge and solo things get a little trickier! Ofcourse there’s ways to simplify it which I touch on in the video, however I walk through each section step by step and with enough practice i’m confident most players will be able to master the whole song. The song is in drop D tuning and doesn’t require a capo.

At the end of the video i’ll be playing through all of #yourbodyisawonderland with a vocal track on top for you to play along to. Enjoy! Like this #yourbodyisawonderland video by #johnmayer and subscribe to the channel for more videos in the future!

-Dave T

------------------------------------------------
                      NO CAPO
------------------------------------------------
[Intro/Verse/Chorus]
e|-------x----|-------x----|-------x----|-------x----| 
B|-------x----|-------x----|-------x----|-------x----| 
G|----10-x-10-|----10-x-10-|----10-x-10-|----10-x-10-| 
D|----10-x-10-|----10-x-10-|----10-x-10-|----10-x-10-| 
A|--8----x----|-------x----|-------x----|-------x----| 
D|-------x----|-10----x----|--8----x----|-10----x----| 
    1 +  2 +    3  +  4 +     1 +  2 +    3  +  4 +

[Prechorus]
e|-------x----------x----|------x----------x----|  
B|----10-x--8----8--x----|---10-x--8----8--x----|  
G|----10-x-10---10--x----|---10-x-10---10--x----|  
D|-----8-x--8----8--x----|----8-x--8----8--x----|  x2 
A|-------x----------x----|------x----------x----|  
D|--8----x----------x--8-|-10---x----------x-10-| 
    1 +  2  + 3  +  4  +   1  + 2  + 3  +  4  + 
 
e|-------x----------x----|------x----------x----|  
B|----10-x--8----8--x----|---10-x--8----8--x----|  
G|----10-x-10---10--x----|---10-x-10---10--x----|  
D|-----8-x--8----8--x----|----8-x--8----8--x----|  
A|-------x----------x----|------x----------x----|  
D|--8----x----------x--8-|-10---x----------x--0-| 
    1 +  2  + 3  +  4  +   1  + 2  + 3  +  4  + 
 
e|-------x----------x----|------x----------x----|  
B|-----3-x-------5--x----|----6-x-------8--x----|  
G|-----3-x-------5--x----|----7-x-------9--x----|  
D|-----5-x-------7--x----|----8-x------10--x----|  
A|-------x----------x----|------x----------x----|  
D|--5----x--5-7-----x--7-|-8----x--8-10----x-10-| 
    1 +  2  + 3  +  4  +   1  + 2  + 3  +  4  +

[Bridge]
e|-----x------x-0------x-0------x-0------x-0------x-0------x-0------| 
B|-6---x---8--x--------x--------x--------x--------x--------x--------| 
G|-7---x---9--x------9-x------9-x------9-x------9-x------9-x------9-| 
D|-9---x------x--------x--------x--------x--------x--------x--------|   x4 
A|---0-x--10--x---10---x---10---x---10---x---10---x---10---x---10---|   
D|-0---x------x--------x--------x--------x--------x--------x--------|

[Solo]
e|---12-x-8---------x---------x--------------|---12-x-8-----10-x----------x----------x-----| 
B|------x----8/10-8-x-6-------x----6/8--10\8-|------x---10-----x-12-------x----------x-----| 
G|---12-x-9---------x---------x--------------|---12-x-9-----10-x----------x----------x-----| 
D|------x----8/10-8-x-7-------x----7/9--10\8-|------x---10-----x-12-------x----------x-----| 
A|------x-----------x---------x--------------|------x----------x----------x----------x-----| 
D|-0----x-----------x----0----x--0-----------|-0----x----------x----0-----x-0-10-----x-10--| 
 
e|---12-x-8---------x---------x--------------|---12-x-8-----15-x-12-------x----------x-----| 
B|------x----8/10-8-x-6-------x----6/8--10\8-|------x---10-----x----------x----------x-----| 
G|---12-x-9---------x---------x--------------|---12-x-9-----16-x-12-------x----------x-----| 
D|------x----8/10-8-x-7-------x----7/9--10\8-|------x---10-----x----------x----------x-----| 
A|------x-----------x---------x--------------|------x----------x----------x----------x-----| 
D|-0----x-----------x----0----x--0-----------|-0----x----------x----0-----x-0-10-----x-10--| 

[Break]
e|---------------| 
B|---------------| 
G|-----10--x--10-| 
D|-----10--x--10-|  x7 
A|---------------| 
D|---0-----------| 
 
e|---------------| 
B|---------------| 
G|-----10--x--10-| 
D|-----10--x--10-|   
A|---------------| 
D|--10-----------|