4/10

DIFFICULTY

STANDARD TUNING

NO CAPO

Guitar Chord & Songwriting Cheat Sheet

GUITARZERO2HERO FREEBIE:

CHORD & SONGWRITING CHEAT SHEET

MASTER OVER 200+ CHORDS & MORE - YOU'LL ALSO RECEIVE THE LATEST NEWS & UPDATES FROM GUITARZERO2HERO

Welcome to this Harry Styles “Two Ghosts” Guitar Tutorial! #twoghosts is a really great acoustic track from Harry Styles new album has got a great John Mayer country vibe going on. It’s got an easy strumming pattern and and introduces us to some cool open chord shapes you may not have ever seen before.

At the end of the video i’ll be playing through #twoghosts with a vocal backing track for some context. Play along and see how you go. ūüôā Enjoy! Like the #twoghosts video by #harrystyles and subscribe to the channel for more videos in the future!

-Dave T

[INTRO/BREAK]
e|------------------4/7~--|------------------4/7~--| 
B|----------------5-------|----------------5-------| 
G|------------------------|------------------------| 
D|------------------------|------------------------| 
A|------------------------|------------------------| 
E|------------------------|------------------------| 
 
e|7/9\7~------------4/7~--|-----------5p4----------| 
B|----------------5-------|---------------5--5b7r5-| 
G|------------------------|------------------------| 
D|------------------------|------------------------| 
A|------------------------|------------------------| 
E|------------------------|------------------------|

[SOLO]
e|----------------------------------------------------------------|
B|/5~-----5/7~-----7/9-7-5-5/7~------7/9-7-5----------------------|
G|-------------------------------------------4/6~-------4-4/6-4/6-|
D|----------------------------------------------------------------|
A|----------------------------------------------------------------|
E|----------------------------------------------------------------|

e|----------------------------------------------------------------|
B|/5~-----5/7~-----7/9-7-5-5/7~------7/9-7-5----------------------|
G|-------------------------------------------4/6~-----------------|
D|----------------------------------------------------------------|
A|----------------------------------------------------------------|
E|----------------------------------------------------------------|

[OUTRO]
e|------------------4/7~--|------------------4/7~--| 
B|----------------5-------|----------------5-------| 
G|------------------------|------------------------| 
D|------------------------|------------------------| 
A|------------------------|------------------------| 
E|------------------------|------------------------| 
 
e|7/9\7~------------4/7~--|------------------------| 
B|----------------5-------|------------------------| 
G|------------------------|------------------------| 
D|------------------------|------------------------| 
A|------------------------|------------------------| 
E|------------------------|------------------------|
   E    F#m11 G#m6  A     C#m   B     Bm
e|-0----0-----0-----0-----0-----2-----2-----|
B|-0----0-----0-----2-----5-----4-----3-----|
G|-1----2-----4-----2-----6-----4-----4-----| Notes in parentheses are played by
D|-2----4-----6-----2-----6-----4-----4-----| the bass and thus optional
A|-2----4-----6-----0-----4-----2-----2-----|
E|(0)--(2)---(4)----------------------------|


[Intro]
E F#m11 G#m6 F#m11

[Verse 1]
E
Same lips red, same eyes blue
F#m11
Same white shirt, couple more tattoos
G#m6                               F#m11
     But it's not you and it's not me
E
Tastes so sweet, looks so real
F#m11
Sounds like something that I used to feel
G#m6                          F#m11
     But I can't touch what I see


[Chorus]
      A                   E
We're not who we used to be
      A                   E
We're not who we used to be
           C#m        B               A        G#m6      F#m11
We're just two ghosts standing in the place of you and me
C#m       B               A                    E
Trying to remember how it feels to have a heartbeat

F#m11
G#m6
F#m11

[Verse 2]
E
The fridge light washes this room white
F#m11
Moon dances over your good side
G#m6                        F#m11
    This was all we used to need
E
Tongue-tied like we've never known
F#m11
Telling those stories we already told
G#m6                                   F#m11
    'Cause we don't say what we really mean


[Chorus]
      A                   E
We're not who we used to be
      A                   E
We're not who we used to be
           C#m        B               A        G#m6      F#m11
We're just two ghosts standing in the place of you and me
      A                   E
We're not who we used to be
      A                   E
We're not who we used to be
           C#m        B             A          G#m6 F#m11
We're just two ghosts swimming in a glass half empty
C#m       B               A                    E
Trying to remember how it feels to have a heartbeat

[Bridge]
E G#m6 Bm F#m11
E G#m6 Bm F#m11

[Chorus]
      A                   E
We're not who we used to be
      A                   E
We're not who we used to be
           C#m        B               A        G#m6      F#m11
We're just two ghosts standing in the place of you and me
      A                   E
We're not who we used to be
      A                   E
We're not who we used to be
           C#m        B             A          G#m6 F#m11
We're just two ghosts swimming in a glass half empty
C#m       B               A                    E
Trying to remember how it feels to have a heartbeat