4.5/10

DIFFICULTY

STANDARD TUNING

NO CAPO

Guitar Chord & Songwriting Cheat Sheet

GUITARZERO2HERO FREEBIE:

CHORD & SONGWRITING CHEAT SHEET

MASTER OVER 200+ CHORDS & MORE - YOU'LL ALSO RECEIVE THE LATEST NEWS & UPDATES FROM GUITARZERO2HERO

CHORD SHAPES

Welcome to Throwback Thursday’s where I teach you a classic hit from the last 4-5 decades! This week I’ll be covering a Let It Be Guitar Tutorial from arguably the best band of all the, The Beatles! This is such a beautiful song which is incredibly easy to play so it’ll be great for beginners but will also challenge more experienced players with the guitar solo. In this video i’ll teach you 2 different main components

1. Rhythm – Acoustic guitar chords
2. Lead – Guitar Solo on electric guitar

At the end of the video i’ll be playing through the entirety of #letitbe with a vocal track on top for you to play along to. Enjoy! Like this #letitbe video by #thebeatles and subscribe to the channel for more videos in the future!

-Dave T

------------------------------------------------
                     SOLO 
------------------------------------------------
e|----------------------------------------------------------| 
B|----------------------------------------------------------| 
G|--5---5----------------------------------5-7b9---9r7--5---| 
D|--5h7-5-----------------5-5---5------5h7------------------| 
A|----------7\5-3-----5/7-----7-----------------------------| 
E|----------------------------------------------------------|  
 
e|-----8---------------5------------------------------------| 
B|---------------------5------------------------------------| 
G|-7/9---9\7--5h7--7b9---9r7--5-----------------------------| 
D|------------------------------------7p5-7p5---------------| 
A|--------------------------------------------7\5-3h5-3-----| 
E|----------------------------------------------------------| 
 
e|--------------------------------------------------8-10b12-| 
B|----------------------8-------8------8--10---8h10---------| 
G|------5-5-----5---7/9-----7/9----7/9----------------------| 
D|-5h7--------7---------------------------------------------| 
A|----------------------------------------------------------| 
E|----------------------------------------------------------| 
 
e|-12r10-8h10-8----15b17r15---------------------------------| 
B|--------------------------17r15p13--15p13--15b17-13h15-13-| 
G|----------------------------------------------------------| 
D|----------------------------------------------------------| 
A|----------------------------------------------------------| 
E|----------------------------------------------------------|
------------------------------------------------
                    NO CAPO 
------------------------------------------------
[Intro]

C G Am F 
C G |F C/E Dm C|

[Verse 1]

       C              G                 Am          F
When I find myself in times of trouble, Mother Mary comes to me
C                 G              F C/E Dm C
Speaking words of wisdom, let it be

    C             G                Am                F
And in my hour of darkness, she is standing right in front of me
C                 G              F C/E Dm C
Speaking words of wisdom, let it be

[Chorus]

C      Am         G          F          C
Let it be, let it be, let it be, let it be
C                G              F C/E Dm C
Whisper words of wisdom, let it be

[Verse 2]

    C               G               Am            F
And when the broken hearted people, living in the world agree
C                G              F C/E Dm C
There will be an answer, let it be

    C                  G                Am                  F
For though they may be parted, there is still a chance that they will see
C                G              F C/E Dm C
There will be an answer, let it be

[Chorus]

C      Am         G          F          C
Let it be, let it be, let it be, let it be
C                G              F C/E Dm C
There will be an answer, let it be
C      Am         G          F          C
Let it be, let it be, let it be, let it be
C                G              F C/E Dm C
Whisper words of wisdom, let it be

[Break]

|F C/E Dm C| Bb Am G | F C |
|F C/E Dm C| Bb Am G | F C |

[Solo]

C G Am F 
C G |F C/E Dm C|


[Chorus]

C      Am         G          F          C
Let it be, let it be, let it be, let it be
C                G              F C Dm/E C
Whisper words of wisdom, let it be

[Verse 3]

    C                 G                Am                 F
And when the night is cloudy, there is still a light that shines on me
C                 G            F C/E Dm C
Shine on till tomorrow, let it be

  C              G               Am          F
I wake up to the sound of music, Mother Mary comes to me
C                 G              F C/E Dm C
Speaking words of wisdom, let it be

[Chorus]

C      Am         G          F          C
Let it be, let it be, let it be, let it be
C                G              F C/E Dm C
There will be an answer, let it be

C      Am         G          F          C
Let it be, let it be, let it be, let it be
C                G              F C Dm/E C
Whisper words of wisdom, let it be


[Outro]

|F C/E Dm C| Bb Am G | F C |