5/10

DIFFICULTY

STANDARD TUNING

NO CAPO

Guitar Chord & Songwriting Cheat Sheet

GUITARZERO2HERO FREEBIE:

CHORD & SONGWRITING CHEAT SHEET

MASTER OVER 200+ CHORDS & MORE - YOU'LL ALSO RECEIVE THE LATEST NEWS & UPDATES FROM GUITARZERO2HERO

Welcome to Throwback Thursday’s where I teach you a classic hit from the last 4-5 decades! This week I’ll be going over a Drive Guitar Tutorial from alternative rock band Incubus! What a riff! This song has a great strumming pattern riff which is on the trickier side, but when broken down, is actually a very simple riff. It was one of the first songs I learnt to play when I was learning guitar and is still a fun song to this day for me to play.

For the basics you’ll need your guitar in standard tuning and you won’t need a capo. I’ll also show you how to play the guitar solo in the bridge which is quite a simple solo to play, so great for beginners.

Enjoy! Like this #drive video by #incubus and subscribe to the channel for more videos in the future!

-Dave T

[Main Riff - Verse/Chorus]
e|---------0---0-0-x-x-------------| 
B|---------8---8-8-x-x-----9---9-9-| 
G|---------0---0-0-x-x-----9---9-9-| 
D|-----9---9---9-9-x-x-----7---7-7-| 
A|---------7---7-7-x-x-9---9---9-9-| 
E|-0-------0---0-0-x-x-------------| 
           D   D U D U     D   D U 
 
e|---------0---0-0-x-x-----0---0-0-| 
B|---------5---5-5-x-x-----5---5-5-| 
G|---------4---4-4-x-x-----0---0-0-| 
D|-----5---5---5-5-x-x-----5---5-5-| 
A|-3-------3---3-3-x-x-----x---x-x-| 
E|-----------------x-x-5---5---5-5-| 
           D   D U D U     D   D U 
[Pre-Chorus]
Cmaj7         A7 
D---D--UD-D-  D---D--UD-D-D-D-     x 3
Cmaj7         A7 
D---D--UD-D-  D
[Solo]
e|---0-0-0-0---7-5\3-3---5----------------------------------| 
B|-3/5-5-5-5----------------3--5-3h5-3----3h5-3h5---3h5-3h5-| 
G|----------------------------------------------------------| 
D|----------------------------------------------------------| 
A|----------------------------------------------------------| 
E|----------------------------------------------------------| 
 
e|-3--5-5/7--7-5--10--7--5--7--------------------5--5-3-3-----------------| 
B|----------------------------3h5-3-3-5-3h5-3-------------5-5-3-----------| 
G|--------------------------------------------------------------4-2-2-4-4-| 
D|------------------------------------------------------------------------| 
A|------------------------------------------------------------------------| 
E|------------------------------------------------------------------------|