5/10

DIFFICULTY

STANDARD TUNING

NO CAPO

Guitar Chord & Songwriting Cheat Sheet

GUITARZERO2HERO FREEBIE:

CHORD & SONGWRITING CHEAT SHEET

MASTER OVER 200+ CHORDS & MORE - YOU'LL ALSO RECEIVE THE LATEST NEWS & UPDATES FROM GUITARZERO2HERO

Welcome to Throwback Thursday’s where I teach you a classic hit from the last 4-5 decades! This week we’re going to a recent indie rock classic with a Do I Wanna Know Guitar Tutorial by The Arctic Monkeys. This is such a fun riff/song to play, and requires no chords at all, just really cool riffs!

Enjoy! Like this #doiwannaknow video by #thearcticmonkeys and subscribe to the channel for more videos in the future!

-Dave T

[Lead in]
E|---------------------------------|
B|---------------------------------|
G|---------------------------------|
D|---------------------------------|
A|-----------------------------1---|
E|-------------------------1h3-----|
   1   +   2   +   3   +   4   + 
   
[Verse]
E|--------------------------------|--------------------------------|
B|--------------------------------|--------------------------------|
G|--------------------------------|--------------------------------|
D|-----------------------------1h3|-1------------------------------|
A|-------------------------1------|-------------3/5-3-----------1--|
E|-3-------------------1h3--------|--------------------------------|
   1   +   2   +   3   +   4   +    1   +   2   +   3   +   4   + 

E|--------------------------------|--------------------------------|
B|--------------------------------|--------------------------------|
G|--------------------------------|--------------------------------|
D|--------------------------------|--------------------------------|
A|-3-5-3---------------1-3-5---3h5|-----------------------------1--|
E|--------------------------------|-3-----------------------1h3----|
   1   +   2   +   3   +   4   +    1   +   2   +   3   +   4   + 

[Verse Variation]
E|--------------------------------|--------------------------------|
B|--------------------------------|--------------------------------|
G|--------------------------------|--------------------------------|
D|-----------------------------1h3|-1------------------------------|
A|-------------------------1------|-------------3/5-3-----------1--|
E|-3-------------------1h3--------|--------------------------------|
   1   +   2   +   3   +   4   +    1   +   2   +   3   +   4   + 

E|--------------------------------|--------------------------------|
B|--------------------------------|--------------------------------|
G|--------------------------------|--------------------------------|
D|--------------------------------|--------------------------------|
A|-3-5-3--------------------------|-5-----------------------10\----|
E|--------------------------------|--------------------------------|
   1   +   2   +   3   +   4   +    1   +   2   +   3   +   4   + 

[Prechorus]
E|--------------------------------|--------------------------------|
B|--------------------------------|--------------------------------|
G|--------------------------------|--------------------------------|
D|--------------------------------|--------------------------------|
A|-6-------------------3-5-6---5--|-3-----------1---3-----------1--|
E|--------------------------------|--------------------------------|
   1   +   2   +   3   +   4   +    1   +   2   +   3   +   4   + 

E|--------------------------------|--------------------------------|
B|--------------------------------|--------------------------------|
G|--------------------------------|--------------------------------|
D|--------------------------------|--------------------------------|
A|-3-5-------------------------1--|-------------------------10\----|
E|-----3-------------------1h3----|-3------------------------------|
   1   +   2   +   3   +   4   +    1   +   2   +   3   +   4   + 

E|--------------------------------|--------------------------------|
B|--------------------------------|--------------------------------|
G|--------------------------------|--------------------------------|
D|--------------------------------|--------------------------------|
A|-6-------------------3-5-6---5--|-3-----------1---3--------------|
E|--------------------------------|--------------------------------|
   1   +   2   +   3   +   4   +    1   +   2   +   3   +   4   + 

E|--------------------------------|--------------------------------|
B|--------------------------------|--------------------------------|
G|--------------------------------|--------------------------------|
D|--------------------------------|--------------------------------|
A|--------------------------------|-----------------------------1--|
E|-3------------------------------|-3-----------------------1h3----|
   1   +   2   +   3   +   4   +    1   +   2   +   3   +   4   + 


[Chorus 1]
E|--------------------------------|--------------------------------|
B|--------------------------------|--------------------------------|
G|--------------------------------|--------------------------------|
D|-----------------------------1h3|-1------------------------------|
A|-------------------------1------|-------------3/5-3-----------1--|
E|-3-------------------1h3--------|--------------------------------|
   1   +   2   +   3   +   4   +    1   +   2   +   3   +   4   + 

E|--------------------------------|--------------------------------|
B|--------------------------------|--------------------------------|
G|--------------------------------|--------------------------------|
D|--------------------------------|--------------------------------|
A|-3-5-3---------------1-3-5---3h5|-----------------------------1--|
E|--------------------------------|-3-----------------------1h3----|
   1   +   2   +   3   +   4   +    1   +   2   +   3   +   4   + 

E|--------------------------------|--------------------------------|
B|--------------------------------|--------------------------------|
G|--------------------------------|--------------------------------|
D|-----------------------------1h3|-1------------------------------|
A|-------------------------1------|-------------3/5-3-------1---1--|
E|-3-------------------1h3--------|--------------------------------|
   1   +   2   +   3   +   4   +    1   +   2   +   3   +   4   + 

E|--------------------------------|--------------------------------|
B|--------------------------------|--------------------------------|
G|--------------------------------|--------------------------------|
D|--------------------------------|--------------------------------|
A|-3-5-3---------------1-3-5---3h5|--------------------------------|
E|--------------------------------|-3------------------------------|
   1   +   2   +   3   +   4   +    1   +   2   +   3   +   4   + 

[Prechorus 2]
E|--------------------------------|--------------------------------|
B|--------------------------------|--------------------------------|
G|--------------------------------|--------------------------------|
D|--------------------------------|--------------------------------|
A|-6-------------------3-5-6---5--|-3-----------1---3-----------1--|
E|--------------------------------|--------------------------------|
   1   +   2   +   3   +   4   +    1   +   2   +   3   +   4   + 

E|--------------------------------|--------------------------------|
B|--------------------------------|--------------------------------|
G|--------------------------------|--------------------------------|
D|--------------------------------|--------------------------------|
A|-3-5-------------------------1--|-------------------------10\----|
E|-----3-------------------1h3----|-3------------------------------|
   1   +   2   +   3   +   4   +    1   +   2   +   3   +   4   + 

E|--------------------------------|--------------------------------|
B|--------------------------------|--------------------------------|
G|--------------------------------|--------------------------------|
D|--------------------------------|--------------------------------|
A|-6-------------------3-5-6---5--|-3-----------1---3-----------1--|
E|--------------------------------|--------------------------------|
   1   +   2   +   3   +   4   +    1   +   2   +   3   +   4   + 

E|--------------------------------|--------------------------------|
B|--------------------------------|--------------------------------|
G|--------------------------------|--------------------------------|
D|--------------------------------|--------------------------------|
A|-3-5-------------------------1--|-----------------------------1--|
E|-----3-------------------1h3----|-3-----------------------1h3----|
   1   +   2   +   3   +   4   +    1   +   2   +   3   +   4   + 

[Chorus 2]
E|--------------------------------|--------------------------------|
B|--------------------------------|--------------------------------|
G|--------------------------------|--------------------------------|
D|-----------------------------1h3|-1------------------------------|
A|-------------------------1------|-------------3/5-3-----------1--|
E|-3-------------------1h3--------|--------------------------------|
   1   +   2   +   3   +   4   +    1   +   2   +   3   +   4   + 

E|--------------------------------|--------------------------------|
B|--------------------------------|--------------------------------|
G|--------------------------------|--------------------------------|
D|--------------------------------|--------------------------------|
A|-3-5-3---------------1-3-5---3h5|-----------------------------1--|
E|--------------------------------|-3-----------------------1h3----|
   1   +   2   +   3   +   4   +    1   +   2   +   3   +   4   + 

E|--------------------------------|--------------------------------|
B|--------------------------------|--------------------------------|
G|--------------------------------|--------------------------------|
D|-----------------------------1h3|-1------------------------------|
A|-------------------------1------|-------------3/5-3-------1---1--|
E|-3-------------------1h3--------|--------------------------------|
   1   +   2   +   3   +   4   +    1   +   2   +   3   +   4   + 

E|--------------------------------|--------------------------------|
B|--------------------------------|--------------------------------|
G|--------------------------------|--------------------------------|
D|--------------------------------|--------------------------------|
A|-3-5-3---------------1-3-5---3h5|-------------------------10\----|
E|--------------------------------|-3------------------------------|
   1   +   2   +   3   +   4   +    1   +   2   +   3   +   4   + 

[Outro Pt.1]
E|--------------------------------|--------------------------------|
B|--------------------------------|--------------------------------|
G|--------------------------------|--------------------------------|
D|--------------------------------|--------------------------------|
A|-6-------------------3-5-6---5--|-3-----------1---3-----------1--|
E|--------------------------------|--------------------------------|
   1   +   2   +   3   +   4   +    1   +   2   +   3   +   4   + 

E|--------------------------------|--------------------------------|
B|--------------------------------|--------------------------------|
G|--------------------------------|--------------------------------|
D|--------------------------------|--------------------------------|   x2
A|-3-5-------------------------5--|-------------------------10\----|
E|-----3-------------------1h3----|-3------------------------------|
   1   +   2   +   3   +   4   +    1   +   2   +   3   +   4   + 

E|--------------------------------|--------------------------------|
B|--------------------------------|--------------------------------|
G|--------------------------------|--------------------------------|
D|--------------------------------|--------------------------------|
A|-6-------------------3-5-6---5--|-3-----------1---3-----------1--|
E|--------------------------------|--------------------------------|
   1   +   2   +   3   +   4   +    1   +   2   +   3   +   4   + 

E|--------------------------------|--------------------------------|
B|--------------------------------|--------------------------------|
G|--------------------------------|--------------------------------|
D|--------------------------------|--------------------------------|
A|-3-5-------------------------1--|-------------------------10\----|
E|-----3-------------------1h3----|-1------------------------------|
   1   +   2   +   3   +   4   +    1   +   2   +   3   +   4   + 

[Outro Pt.2]
E|--------------------------------|--------------------------------|
B|--------------------------------|--------------------------------|
G|--------------------------------|--------------------------------|
D|--------------------------------|--------------------------------|
A|-6-------------------3-5-6---5--|-3-----------1---3--------------|
E|--------------------------------|--------------------------------|
   1   +   2   +   3   +   4   +    1   +   2   +   3   +   4   + 

E|--------------------------------|--------------------------------|
B|--------------------------------|--------------------------------|
G|--------------------------------|--------------------------------|
D|--------------------------------|--------------------------------|   x3
A|-----------------------------1--|-3-5----------------------------|
E|-3------------------------------|-----3--------------------------|
   1   +   2   +   3   +   4   +    1   +   2   +   3   +   4   + 

E|--------------------------------|--------------------------------|
B|--------------------------------|--------------------------------|
G|--------------------------------|--------------------------------|
D|--------------------------------|--------------------------------|  
A|--------------------------------|--------------------------------|
E|-3------------------------------|-3------------------------------|
   1   +   2   +   3   +   4   +    1   +   2   +   3   +   4   +