4/10

DIFFICULTY

STANDARD TUNING

CAPO ON 1ST FRET

Guitar Chord & Songwriting Cheat Sheet

GUITARZERO2HERO FREEBIE:

CHORD & SONGWRITING CHEAT SHEET

MASTER OVER 200+ CHORDS & MORE - YOU'LL ALSO RECEIVE THE LATEST NEWS & UPDATES FROM GUITARZERO2HERO

CHORD SHAPES

Welcome to this DNCE Truthfully Guitar Tutorial! #truthfully is a really cool guitar track from the self titled DNCE album that was recently released. It’s a fully finger picked song and really fun to play so give it a shot.

At the end of the video i’ll be playing through #truthfully with a vocal backing track for some context. Play along and see how you go. 🙂
Enjoy! Like the #truthfully video by #DNCE and subscribe to the channel for more videos in the future!

-Dave T

--------------------------------
        CAPO ON 1ST FRET
--------------------------------

[Intro]
   Cadd9   G         D     Em7
e|-3---x---3-3-x---|-2-2-x-3---3-x---|
B|-3---x---3-3-x---|-3-3-x-3---3-x---|
G|-0---x---0-0-x---|-2-2-x-0---0-x---|
D|-----x-------x---|-0-0-x-------x---|
A|-3---x-------x---|-----x-------x---|
E|-----x---3-3-x---|-----x-0---0-x---|
   1 + 2 + 3 + 4 +   1 + 2 + 3 + 4 + 

   Cadd9   Em7       D     
e|-3---x---3-3-x---|-2-----------x----|
B|-3---x---3-3-x---|-3-----------x----|
G|-0---x---0-0-x---|-2-----------x----|
D|-----x-------x---|-0-----------x----|
A|-3---x-------x---|-------------x----|
E|-----x---0-0-x---|-------------x----|
   1 + 2 + 3 + 4 +   1 + 2 + 3 + 4 + 

[Verse]
   Cadd9   G         D     Em7
e|-3---x---3-3-x---|-2-2-x-3---3-x---|
B|-3---x---3-3-x---|-3-3-x-3---3-x---|
G|-0---x---0-0-x---|-2-2-x-0---0-x---|
D|-----x-------x---|-0-0-x-------x---|
A|-3---x-------x---|-----x-------x---|
E|-----x---3-3-x---|-----x-0---0-x---|     x3
   1 + 2 + 3 + 4 +   1 + 2 + 3 + 4 + 

   Cadd9   Em7       D     
e|-3---x---3-3-x---|-2---------------|
B|-3---x---3-3-x---|-3---------------|
G|-0---x---0-0-x---|-2---------------|
D|-----x-------x---|-0---------------|
A|-3---x-------x---|-----------------|
E|-----x---0-0-x---|-----------------|
   1 + 2 + 3 + 4 +   1 + 2 + 3 + 4 + 

[Chorus]
   Cadd9   G         D     Em7
e|-3---x---3-3-x---|-2-2-x-3---3-x---|
B|-3---x---3-3-x---|-3-3-x-3---3-x---|
G|-0---x---0-0-x---|-2-2-x-0---0-x---|
D|-----x-------x---|-0-0-x-------x---|
A|-3---x-------x---|-----x-------x---|
E|-----x---3-3-x---|-----x-0---0-x---|     x2
   1 + 2 + 3 + 4 +   1 + 2 + 3 + 4 + 

   Cadd9   G         B7    Em
e|-3---x---3-3-x---|-2-2-x-0---0-x---|
B|-3---x---3-3-x---|-0-0-x-0---0-x---|
G|-0---x---0-0-x---|-2-2-x-0---0-x---|
D|-----x-------x---|-----x-------x---|
A|-3---x-------x---|-2-2-x-------x---|
E|-----x---3-3-x---|-----x-0---0-x---|    
   1 + 2 + 3 + 4 +   1 + 2 + 3 + 4 + 

   Cadd9   G         D     
e|-3---x---3-3-x---|-2---------------|
B|-3---x---3-3-x---|-3---------------|
G|-0---x---0-0-x---|-2---------------|
D|-----x-------x---|-0---------------|
A|-3---x-------x---|-----------------|
E|-----x---3-3-x---|-----------------|
   1 + 2 + 3 + 4 +   1 + 2 + 3 + 4 + 


[Break]
   Cadd9   G         D     Em7
e|-3---x---3-3-x---|-2-2-x-3---3-x---|
B|-3---x---3-3-x---|-3-3-x-3---3-x---|
G|-0---x---0-0-x---|-2-2-x-0---0-x---|
D|-----x-------x---|-0-0-x-------x---|
A|-3---x-------x---|-----x-------x---|
E|-----x---3-3-x---|-----x-0---0-x---|
   1 + 2 + 3 + 4 +   1 + 2 + 3 + 4 + 

   Cadd9   G         D     
e|-3---x---3-3-x---|-2-----------x----|
B|-3---x---3-3-x---|-3-----------x----|
G|-0---x---0-0-x---|-2-----------x----|
D|-----x-------x---|-0-----------x----|
A|-3---x-------x---|-------------x----| 
E|-----x---3-3-x---|-------------x----|
   1 + 2 + 3 + 4 +   1 + 2 + 3 + 4 + 


[Bridge]
   Am            C         Cm
e|-0---x---0-0-x-3-|---3-x-3---3-x---|
B|-1---x---1-1-x-5-|---5-x-4---4-x---|
G|-2---x---2-2-x-5-|---5-x-5---5-x---|
D|-----x-------x---|-----x-------x---|
A|-0---x---0-0-x-3-|---3-x-3---3-x---|
E|-----x-------x---|-----x-------x---|
   1 + 2 + 3 + 4 +   1 + 2 + 3 + 4 + 


   G             Em         
e|-3---x---3-2-x-0-|---0-x-0---0-x---|
B|-3---x---3-3-x-0-|---0-x-0---0-x---|
G|-0---x---0-2-x-0-|---0-x-0---0-x---|
D|-----x-------x---|-----x-------x---|
A|-----x-------x---|-----x-------x---|
E|-3---x---3-2-x-0-|---0-x-0---0-x---|
   1 + 2 + 3 + 4 +   1 + 2 + 3 + 4 + 

   A7                      
e|-0---x---0-0-x-0-|---0-x-0---0-x---|
B|-2---x---2-2-x-2-|---2-x-2---2-x---|
G|-0---x---0-0-x-0-|---0-x-0---0-x---|
D|-----x-------x---|-----x-------x---|
A|-0---x---0-0-x-0-|---0-x-0---0-x---|
E|-----x-------x---|-----x-------x---|
   1 + 2 + 3 + 4 +   1 + 2 + 3 + 4 + 

   Cadd9             D     
e|-3---------------|-2---------------|
B|-3---------------|-3---------------|
G|-0---------------|-2---------------|
D|-----------------|-0---------------|
A|-3---------------|-----------------|
E|-----------------|-----------------|
   1 + 2 + 3 + 4 +   1 + 2 + 3 + 4 +