3/10

DIFFICULTY

STANDARD TUNING

NO CAPO

Guitar Chord & Songwriting Cheat Sheet

GUITARZERO2HERO FREEBIE:

CHORD & SONGWRITING CHEAT SHEET

MASTER OVER 200+ CHORDS & MORE - YOU'LL ALSO RECEIVE THE LATEST NEWS & UPDATES FROM GUITARZERO2HERO

CHORD SHAPES

Silent Night Guitar Tutorial on the Jamstik+ Guitar
★☆★15% Discount for all GuitarZero2Hero viewers, enter “GuitarZero2Hero” at the checkout for the limited time deal★☆★
http://jamstik.com/GuitarZero2Hero

The Holiday Season is upon us! So I thought it’d be a great opportunity to provide a Silent Night guitar tutorial, an excellent Christmas song on guitar that everyone knows and loves. In the video I teach you how to play this song using the Jamstik+ portable smart guitar. But don’t worry, if you don’t have one it doesn’t matter, everything I teach you here in the video can be transferred over to any acoustic or electric guitar you might own 🙂 The awesome thing about the jamstik is that it acts like as a virtual instrument that is flexible to any sound you choose depending in your audio interface.

Hope you enjoy let me know what you guys think!

If you want to see more about how the jamstik+ works then check out my unboxing video and review here – https://www.youtube.com/watch?v=wB3RwVq56g0

★☆★15% Discount for all GuitarZero2Hero viewers, enter “GuitarZero2Hero” at the checkout for the limited time deal★☆★
http://jamstik.com/GuitarZero2Hero
SUBSCRIBE TO MY CHANNEL
https://www.youtube.com/channel/UCasFZzbM8JJ6dqSVEgL9VVg

[Picked Version]

   G             G             D7            G 
e|-------------|-------------|-------2-----|-------------| 
B|-------3-----|-------3-----|-----1---1---|-------3-----| 
G|-----0---0---|-----0---0---|---2-------2-|-----0---0---| 
D|---0-------0-|---0-------0-|-0-----------|---0-------0-| 
A|-------------|-------------|-------------|-------------| 
E|-3-----------|-3-----------|-------------|-3-----------| 
 
   C             G             C             G 
e|-------------|-------------|-------------|-------------| 
B|-------1-----|-------3-----|-------1-----|-------3-----| 
G|-----0---0---|-----0---0---|-----0---0---|-----0---0---| 
D|---2-------2-|---0-------0-|---2-------2-|---0-------0-| 
A|-3-----------|-------------|-3-----------|-------------| 
E|-------------|-3-----------|-------------|-3-----------| 
 
   D7            G     Em/C# 
e|-------2-----|-3-----0-----| 
B|-----1---1---|-3-----0-----| 
G|---2-------2-|-0-----0-----| 
D|-0-----------|-0-----2-----| 
A|-------------|-2-----4-----| 
E|-------------|-3-----------| 
 
   G     D7      G 
e|-------------|-------------| 
B|-----------1-|-------3-----| 
G|-----0---2---|-----0---0---| 
D|---0---0-----|---0-------0-| 
A|-------------|-------------| 
E|-3-----------|-3-----------|

[VERSE 1]
G                         D7          G          
Silent night! Holy night! All is calm all is bright 
C                G                C              G
Round yon virgin mother and child Holy infant so tender and mild 
D7                G Em/C#  G        D7       G
Sleep in heavenly peace!   Sleep in heavenly peace!


[VERSE 2]
G                         D7              G          
Silent night! Holy night! Shepherds quake at the sight
C                   G           C                   G
Glories stream from heaven afar Heavenly hosts sing Hallelujah
D7                    G Em/C#  G          D7         G
Christ the Saviour is born!    Christ the Saviour is born!


[VERSE 3]
G                         D7         G          
Silent night! Holy night! Son of God love's pure light 
C                  G             C                   G
Radiant beams from thy holy face With the dawn of redeeming grace
D7                G Em/C#  G     D7           G
Jesus lord at thy birth! Jesus lord at thy birth! 
2017-05-21T00:51:41+00:00