5/10

DIFFICULTY

STANDARD TUNING

NO CAPO

Guitar Chord & Songwriting Cheat Sheet

GUITARZERO2HERO FREEBIE:

CHORD & SONGWRITING CHEAT SHEET

MASTER OVER 200+ CHORDS & MORE - YOU'LL ALSO RECEIVE THE LATEST NEWS & UPDATES FROM GUITARZERO2HERO

CHORD SHAPES

To mark the end of the first season of HBO’s Westworld, I’ll be giving you a Westworld Guitar Tutorial! This is an excellent show and I can’t wait for it to start again next year.

The composer of this song Ramin Djawadi also wrote the Game of Thrones theme song! He’s quite the talented musician I would say! If you would like to learn how to play the game of thrones theme song on guitar then check out my 2 tutorials for that below

1. Game of Thrones – Boyce Avenue https://www.youtube.com/watch?v=NfJnB7gnUVk
2. Game of Thrones – Fingerstyle https://www.youtube.com/watch?v=oGhxeyBCZKI

Enjoy! Like the video and subscribe to the channel for more videos in the future!

Dave T

WESTWORLD RHYTHM BACKING TRACK - WITH CLICK
Jam along to the Westworld Theme Song - click below to have the mp3 sent to your email! You'll also receive the latest news & updates from GuitarZero2Hero.

WESTWORLD RHYTHM BACKING TRACK - NO CLICK
Jam along to the Westworld Theme Song - click below to have the mp3 sent to your email! You'll also receive the latest news & updates from GuitarZero2Hero.

---------------------------------------
             RHYTHM GUITAR
---------------------------------------
[SECTION 1]
Am Am F F
Am Am F F
Am Am F F
Am Am G G 
Bb Bb Am Am 

*BREAK* 

[SECTION 2]
F Dm G Am 
Dm C 
---------------------------------------
             LEAD GUITAR
---------------------------------------
[SECTION 1] 
e|-----------------|-----------------|-----------------|-----------------| 
B|-----------------|---5-------------|-----------------|---6-5-----------| 
G|---5-7-7/9-------|-----7-5---------|---5-7-7/9-------|-------7-7/9-----| 
D|-7---------------|-7---------------|-7---------------|-8---------------| 
A|-----------------|-----------------|-----------------|-----------------| 
E|-----------------|-----------------|-----------------|-----------------| 
 
e|-------------------------|---------------------------|---------------------------| 
B|-5---6-5---6-5-----------|-----5-----5---------------|-6---8-6---8-6-5-----6-5---| 
G|---------------7-5---7---|-7-----7-----7-5-----------|-----------------7---------| 
D|-------------------------|-----------------5---5/7---|---------------------------| 
A|-------------------------|---------------------------|---------------------------| 
E|-------------------------|---------------------------|---------------------------| 
 
e|------------|------------|------------|------------| 
B|------------|------------|------------|------------| 
G|-------5-7--|---------5--|-------3-5--|-----0-2-3--| 
D|-----8------|-----7-8----|-----6------|---2--------| 
A|---7--------|---7--------|---5--------|------------| 
E|-6----------|-5----------|-4----------|-3----------| 
 
 
[BRIDGE] 
e|---------------|---------------|---------------|---------------| 
B|---------9-10--|---------9-10--|---------9-10--|---------9-10--| 
G|----9-10-------|----9-10-------|----9-10-------|----9-10-------| 
D|-10------------|-10------------|-10------------|-10------------| 
A|---------------|---------------|---------------|---------------| 
E|---------------|---------------|---------------|---------------| 
 
e|---------------|---------------|---------------|---------------| 
B|-------9-10----|-------9-10----|------9-10-----|------9-10-----| 
G|----10---------|----10---------|----10---------|---10----------| 
D|-10------------|-10------------|-10------------|-10------------| 
A|---------------|---------------|---------------|---------------| 
E|---------------|---------------|---------------|---------------| 
 
e|---------------|---------------|---------------|---------------| 
B|---------9-10--|---------9-10--|---------9-10--|---------9-10--| 
G|----9-10-------|----9-10-------|----9-10-------|----9-10-------| 
D|-10------------|-10------------|-10------------|-10------------| 
A|---------------|---------------|---------------|---------------| 
E|---------------|---------------|---------------|---------------| 
 

[SECTION 2] 
e|-----------------------|---------------------|-----------------------------| 
B|-----------------------|---------------------|-----------------------------| 
G|-9---10-9---10-9-7-5---|-7---9-7---9-7-5-----|-7---9-7---9-7-9-12---10-9---| 
D|-----------------------|-----------------5---|-----------------------------| 
A|-----------------------|---------------------|-----------------------------| 
E|-----------------------|---------------------|-----------------------------| 
 
e|-------------------------|------------------------| 
B|--------------------10---|-13---12---13-12-10-----| 
G|-9---10-9---10-9-10------|--------------------9---| 
D|-------------------------|------------------------| 
A|-------------------------|------------------------| 
E|-------------------------|------------------------| 
 
e|--------8-10--|-----------8--|-------6-8--|-----3-5-6--| 
B|-----11-------|-----10-11----|-----9------|---5--------| 
G|---9----------|---9----------|---7--------|------------| 
D|-8------------|-7------------|-6----------|-5----------| 
A|--------------|--------------|------------|------------| 
E|--------------|--------------|------------|------------|