5/10

DIFFICULTY

STANDARD TUNING

NO CAPO

Guitar Chord & Songwriting Cheat Sheet

GUITARZERO2HERO FREEBIE:

CHORD & SONGWRITING CHEAT SHEET

MASTER OVER 200+ CHORDS & MORE - YOU'LL ALSO RECEIVE THE LATEST NEWS & UPDATES FROM GUITARZERO2HERO

Welcome to Green Day’s Still Breathing Guitar Tutorial! This is an awesome track and one of my favourites off their new album “Revolution Radio”. At the end of the video i’ll be doing a play through of the song with a vocal backing track so jam along!

Enjoy! Like the video and subscribe to the channel for more videos in the future!

-Dave T

[Intro]
e|-x-x-|---x---|
B|-6-6-|---6---|
G|-x-x-|---x---|
D|-x-x-|---x---|
A|-4-4-|---4---|
E|-x-x-|---x---|
          x16    

[Verse]
e|---x---|---x---|--x--x--|---x---|
B|---6---|---x---|--x--x--|---x---|
G|---x---|---5---|--6--6--|---3---|
D|---x---|---x---|--x--x--|---x---|
A|---4---|---x---|--x--x--|---x---|
E|---x---|---4---|--6--4--|---2---|
    x16     x16    x8  x8    x16

[Pre Chorus]
e|---x---|---x---|---x---|---x---|
B|---6---|---x---|---x---|---x---|
G|---x---|---5---|---6---|---3---|
D|---x---|---x---|---x---|---x---|
A|---4---|---x---|---x---|---x---|
E|---x---|---4---|---6---|---2---|
    x16     x16     x16     x9
 
[Chorus]
e|--------|--------|-------|-------|
B|--------|--------|-------|-------|
G|--6--5--|--------|-------|-------|
D|--6--6--|--8--6--|---4---|---6---|
A|--4--3--|--8--6--|---4---|---6---|
E|--------|--6--4--|---2---|---4---|
   x8  x8   x8  x8    x16     x16


[Bridge]
e|--------|--------|
B|--------|--------|
G|--------|-----6--|
D|--8--6--|--4--6--|  x3
A|--8--6--|--4--4--|
E|--6--4--|--2-----| 
   x8  x8   x8  x8

e|--------|-------|-----------------------|
B|--------|-------|-----------------------|
G|-----5--|-------|-----------------------|
D|--8--6--|---4---|-6-6---6-6---6-6---6-6-|
A|--8--3--|---4---|-6-6---6-6---6-6---6-6-|
E|--6-----|---2---|-4-4---4-4---4-4---4-4-|
   x8  x8    x16

e|----------------------|-----------------------|
B|----------------------|-----------------------|
G|-6--6--6--------------|-----------------------|
D|-6--6--6--6-6--6--x-x-|-3--3--3--4-4--4--x--x-|  x2
A|-4--4--4--6-6--6--x-x-|-3--3--3--4-4--4--x--x-|
E|----------4-4--4--x-x-|-1--1--1--2-2--2--x--x-|

[Outro]
e|---x---|
B|---6---|
G|---x---|
D|---x---|
A|---4---|
E|---x---|
    x31