3.5/10

DIFFICULTY

STANDARD TUNING

CAPO ON 2ND FRET

Guitar Chord & Songwriting Cheat Sheet

GUITARZERO2HERO FREEBIE:

CHORD & SONGWRITING CHEAT SHEET

MASTER OVER 200+ CHORDS & MORE - YOU'LL ALSO RECEIVE THE LATEST NEWS & UPDATES FROM GUITARZERO2HERO

CHORD SHAPES

Welcome to the basic step-by-step All Fucked up guitar tutorial from the band The Amity Affliction from their latest album!
They are perhaps one of my favourite bands at the moment and there is an amazing bridge riff that I encourage everyone learns! So fun to play.

At the end of the video I’ll play the song with a vocal backing for some context! Play along!

Enjoy! Like the video and subscribe to the channel for more videos in the future!
-Dave T

------------------------------------------
               CAPO ON 2ND FRET
------------------------------------------

[Bridge Riff]
e|-------------------------------|-------------------------------|
B|-------------------------------|-------------------------------|
G|-------------------------------|-------------------------------|
D|-------5----------5------------|-------2----------2------------|
A|---3-----3----3-----3----3---3-|---3-----3----3-----3----3---3-|
E|-5---5------5---5------5---5---|-3---3------3---3------3---3---|

e|-------------------------------|-------------------------------|
B|-------------------------------|-------------------------------|
G|-------------------------------|-------------------------------|
D|-------2----------2------------|-------0-----------0-----------|
A|---3-----3----3-----3----3---3-|---3-----3----3------3---3---3-|
E|-1---1------1---1------1---1---|-0---0------0---0------0---0---|

------------------------------------------
           CAPO ON 2ND FRET
------------------------------------------


[Verse 1]

       Am
When I wake up I'm thankful
  G
I slept through the night
      Am                      C      G
Cause that is the only time I feel alright
        Am
Keep my eyes closed
               G
So I sleep the sadness away
       Am
When I wake up I'm sure
        C            G
That it won't be the same


[Pre-Chorus]

        F                      G               
All the panic, depression, the hurt and regret
      Am 
Lying to myself -
         C
"I don't think of death..."
        F
All the ups all the downs
        G
All the petty concerns
   Am
My whole world's imploding
  C
I can't find the words



[Chorus]

          F           G
Cause the truth is... I'm fucked up
    Am                                     G
The truth is that I'm all fucked up - like you
                              F
Yeah we're all fucked up it's true

(The truth it I'm all fucked up like you, yeah we're all fucked up)
        Am                                     G
And the truth is, they don't hear the words we say
                        F
Yeah they all just turn away

(The truth is they don't hear the words we say, yeah they're all fucked up)


[Break]

Am G
Am C G


[Verse 2] 

     Am
If I wake up tomorrow
     G
Just know that I tried
   Am
To find a way out
        C          G
Without saying goodbye


[Pre-Chorus]

        F                      G               
All the panic, depression, the hurt and regret
      Am 
Lying to myself -
         C
"I don't think of death..."
        F
All the ups all the downs
        G
All the petty concerns
   Am
My whole world's imploding
  C
I can't find the words


[Chorus]

          F           G
Cause the truth is... I'm fucked up
    Am                                     G
The truth is that I'm all fucked up - like you
                              F
Yeah we're all fucked up it's true

(The truth it I'm all fucked up like you, yeah we're all fucked up)
        Am                                     G
And the truth is, they don't hear the words we say
                        F
Yeah they all just turn away

(The truth is they don't hear the words we say, yeah they're all fucked up)


[Bridge]
Am G F C/E

Am               G     F                 C/E
Will you save my life... Or just say goodbye?
Am               G     F                 C/E
Will you save my life... Or just say goodbye?
Am               G     F                 C/E
Will you save my life... Or just say goodbye?
Am               G     F                 C/E
Will you save my life... Or just say goodbye?
Am               G     F                 C/E
Will you save my life... Or just say goodbye?