4.5/10

DIFFICULTY

STANDARD TUNING

CAPO ON 1ST FRET

Guitar Chord & Songwriting Cheat Sheet

GUITARZERO2HERO FREEBIE:

CHORD & SONGWRITING CHEAT SHEET

MASTER OVER 200+ CHORDS & MORE - YOU'LL ALSO RECEIVE THE LATEST NEWS & UPDATES FROM GUITARZERO2HERO

CHORD SHAPES

Welcome to the basic step-by-step Jinx guitar tutorial from the band DNCE! At the end of the video I’ll play the song with a vocal backing for some context! Play along!

Enjoy! Like the video and subscribe to the channel for more videos in the future!
-Dave T

------------------------------------------
            CAPO ON 1ST FRET
------------------------------------------

[Verse Picking]
   A                           F#m
e|---------------------------|---------------------------|
B|----2---------2--------2---|----2---------2--------2---|
G|---------2---------2-------|---------2---------2-------|
D|-------2---------2-------2-|-4-----4---4-----4---4---4-|
A|-0---------0---------0-----|---------------------------|
E|---------------------------|---------------------------|

   C#m                         C#m          E
e|---------------------------|---------------------------|
B|----5---------5--------5---|----5---------------0------|
G|---------6---------6-------|---------6--------------1--|
D|-------6---------6-------6-|-------6-------------------|
A|-4---------4---------4-----|-4---------4-----2---------|
E|---------------------------|--------------0------------|

------------------------------------------
            CAPO ON 1ST FRET
------------------------------------------

[Intro]

A F#m C#m E


[Verse 1]

A
Feels like I'm in a cartoon
F#m
Lovestruck, shot with a harpoon
C#m
Flying high as a balloon
            E
And I ain't coming down
A
Got no, no chill around you
F#m
But I'm trying, trying to play cool
C#m
Don't want to rush it on too soon
E
I'm keeping you around


[Pre-Chorus]

A             F#m                   C#m
Superstitiously, I'm watching my words
All of my words
E
Now
A                 F#m
Like a birthday wish
               C#m
Don't say it out loud
              E
Never out loud


[Chorus]

D             A/C#      E
Yeah I want to tell everyone
Bm             A          E
That you are, you are my only one
D             A/C#      E
Screaming at the top of my lungs
D             A/C#      E (stop)
But I'm whispering, I'm whispering, I'm whispering
Cause I don't wanna jinx it


[Instrumental]

A F#m C#m E


[Verse 2]

A
Blue birds fly over my head
F#m
Wet dreams swimmin' 'round my bed
C#m
Eyes closed, 11:11
             E
Hoping you will stay
A
Fingers cross when I kiss you
F#m
Knocking wood when I miss you
C#m                        E
Acting like a teenage fool when you are with me


[Pre-Chorus]

A             F#m                   C#m
Superstitiously, I'm watching my words
All of my words
E
Now
A                 F#m
Like a birthday wish
               C#m
Don't say it out loud
              E
Never out loud


[Chorus]

D             A/C#       E
Yeah I want to tell everyone
Bm             A          E
That you are, you are my only one
D             A/C#      E
Screaming at the top of my lungs
D             A/C#       E (stop)
But I'm whispering, I'm whispering, I'm whispering
Cause I don't wanna jinx it


[Instrumental]

A F#m C#m E


[Pre-Chorus] (x2)

A F#m C#m E

Superstitiously
Like a birthday dream         
Don't say it out loud 


[Chorus]

D             A/C#       E
Yeah I want to tell everyone
Bm             A          E
That you are, you are my only one
D             A/C#      E
Screaming at the top of my lungs
D             A/C#       E (stop)
But I'm whispering, I'm whispering, I'm whispering
Cause I don't wanna jinx it


[Outro] (x2)

A F#m C#m E
I don't wanna jinx it