3/10

DIFFICULTY

STANDARD TUNING

CAPO ON 6TH FRET

Guitar Chord & Songwriting Cheat Sheet

GUITARZERO2HERO FREEBIE:

CHORD & SONGWRITING CHEAT SHEET

MASTER OVER 200+ CHORDS & MORE - YOU'LL ALSO RECEIVE THE LATEST NEWS & UPDATES FROM GUITARZERO2HERO

CHORD SHAPES

Welcome to the basic step-by-step Faded guitar tutorial from artist Alan Walker.

At the end of the video I’ll play the whole song including both rhythm and lead guitar parts! Play along!

Enjoy! Like the video and subscribe to the channel for more videos in the future!
-Dave T

------------------------------------------
            NO CAPO
------------------------------------------

[Lead Riff 1] X2
e|-------------------------|-11-11-11-11-11-11-------|
B|-------------------11-11-|-------------------14-14-|
G|-11-11-11-11-11-11-------|-------------------------|
D|-------------------------|-------------------------|
A|-------------------------|-------------------------|
E|-------------------------|-------------------------|
   1  +  2  +  3  +  4  +    1  +  2  +  3  +  4  +   

e|-------------------------|-------------------------|
B|-11-11-11-11-11-11-11-11-|-------------------------|
G|-------------------------|-10-10-10-10-10-10-10-10-|
D|-------------------------|-------------------------|
A|-------------------------|-------------------------|
E|-------------------------|-------------------------|
   1  +  2  +  3  +  4  +    1  +  2  +  3  +  4  +

[Lead Riff 2] X2
e|-------------------14-13-|-11-11-11----------------|
B|-------------11-11-------|----------14-14-14-------|
G|-11-11-11-11-------------|-------------------13-13-|
D|-------------------------|-------------------------|
A|-------------------------|-------------------------|
E|-------------------------|-------------------------|
   1  +  2  +  3  +  4  +    1  +  2  +  3  +  4  +  

e|-------------------------|-------------------------|
B|-11-11-11-11-14-12-11----|-------------------------|
G|----------------------11-|-10-10-10-10-13-13-10-10-|
D|-------------------------|-------------------------|
A|-------------------------|-------------------------|
E|-------------------------|-------------------------|
   1  +  2  +  3  +  4  +    1  +  2  +  3  +  4  +

------------------------------------------
            CAPO ON 6TH FRET
------------------------------------------

[Intro] 

Am F C G

[Verse 1]

Am                        F
You were the shadow to my light
               C
Did you feel us
        G
Another Start
              Am  
You fade away.
                            F
Afraid our aim is out of sight
            C
Wanna see us
  G
Alight.


[Pre-chorus]

              Am     F
Where are you now
              C        G
Where are you now
              Am
Where are you now
                 F
Was it all in my fantasy
              C
Where are you now
               G
Were you only imaginary.


[Chorus]

              Am
Where are you now.
   F
Atlantis.
          C
Under the sea
          G
Under the sea.
              Am
Where are you now
        F
Another dream
      C                              G
The monsters running wild inside of me.
              Am    F
I'm faded
              C      
I'm faded.
     G                  Am    F
So lost, I'm faded
             C
I'm faded
      G                   
 So lost, I'm faded.


[Verse 2]

Am                          F
These shallow waters, never met 
                     C
What i needed
             G
I'm letting go
             Am
A deeper dive.
                       F
Eternal silence of the sea
             C
I'm breathing
  G
Alive.

[Pre-chorus]

              Am       F
Where are you now
              C        G
Where are you now
          Am
Under the bright
           F
But faded lights
           C             G
You set my heart on fire         
               Am
Where are you now
              F
Where are you now.


[Chorus]

             Am
Where are you now.
   F
Atlantis.
          C
Under the sea
          G
Under the sea.
               Am
Where are you now
        F
Another dream
    C                               G
The monsters running wild inside of me.
              Am    F
I'm faded
              C      
I'm faded.
     G                  Am    F
So lost, I'm faded
             C
I'm faded
      G                   
 So lost, I'm faded.