3.5/10

DIFFICULTY

STANDARD TUNING

CAPO ON 4TH FRET

Guitar Chord & Songwriting Cheat Sheet

GUITARZERO2HERO FREEBIE:

CHORD & SONGWRITING CHEAT SHEET

MASTER OVER 200+ CHORDS & MORE - YOU'LL ALSO RECEIVE THE LATEST NEWS & UPDATES FROM GUITARZERO2HERO

CHORD SHAPES

Welcome to Throwback Thursday’s where I teach you a classic hit from the last 4-5 decades! This week we have a Jason Mraz I’m Yours Guitar Tutorial. A really great easy song for beginners with basic chords and an easy strumming pattern!

Enjoy! Like the video and subscribe to the channel for more videos in the future!

-Dave T

--------------------------------
      CAPO ON 4TH FRET
--------------------------------

[Easy Intro Riff]
e|-3/5-|-3------3/5-2--------------------------------|
B|-3/5-|-3------3/5-3-------3/5-0-------0--0h1-------|
G|-----|--------------------2/4-0-------0--0h1-------|
D|-----|---------------------------------------------|
A|-----|---------------------------------------------|
E|-----|---------------------------------------------|
--------------------------------
      CAPO ON 4TH FRET
--------------------------------

[Combined Intro Riff]
e|-3/5-|-3-------------------------3/5--|-2-------------------------------|
B|-3/5-|-3-------------------------3/5--|-3-------------------------3/5---|
G|-----|-0------------------------------|-2-------------------------2/4---|
D|-----|-0------------------------------|-0-------------------------------|
A|-----|-2---2-2-2-2-2-2-2-2-2-2-2------|-0---0-0-0-0-0-0-0-0-0-0-0-------|
E|-----|-3---3-3-3-3-3-3-3-3-3-3-3------|-2---2-2-2-2-2-2-2-2-2-2-2-------|

         1 + 2 + 3 + 4 + 1 + 2 + 3 + 4 +  1 + 2 + 3 + 4 + 1 + 2 + 3 + 4 +

      e|-0------------------------------|-0-------------------------3/5---|
      B|-0-------------------------0---0|-1-------------------------3/5---|
      G|-0-------------------------0---0|-0-------------------------------|
      D|-2------------------------------|-2---2-2-2-2-2-2-2-2-2-2-2-------|
      A|-2---2-2-2-2-2-2-2-2-2-2-2---2--|-3---3-3-3-3-3-3-3-3-3-3-3-------|
      E|-0---0-0-0—0-0-0-0-0-0-0-0---0--|---------------------------------|

         1 + 2 + 3 + 4 + 1 + 2 + 3 + 4 +  1 + 2 + 3 + 4 + 1 + 2 + 3 + 4 +

      e|-3-------------------------3/5--|-2-------------------------------|
      B|-3-------------------------3/5--|-3-------------------------3/5---|
      G|-0------------------------------|-2-------------------------2/4---|
      D|-0------------------------------|-0-------------------------------|
      A|-2---2-2-2-2-2-2-2-2-2-2-2------|-0---0-0-0-0-0-0-0-0-0-0-0-------|
      E|-3---3-3-3-3-3-3-3-3-3-3-3------|-2---2-2-2-2-2-2-2-2-2-2-2-------|

         1 + 2 + 3 + 4 + 1 + 2 + 3 + 4 +  1 + 2 + 3 + 4 + 1 + 2 + 3 + 4 +

      e|-0------------------------------|-0-------------------------------|
      B|-0-------------------------0---0|-1-------------------------------|
      G|-0-------------------------0---0|-0-------------------------------|
      D|-2------------------------------|-2---2-2-2-2-2-2-2-2-2-2-2-2-2-2-|
      A|-2---2-2-2-2-2-2-2-2-2-2-2---2--|-3---3-3-3-3-3-3-3-3-3-3-3-3-3-3-|
      E|-0---0-0-0—0-0-0-0-0-0-0-0---0--|---------------------------------|

         1 + 2 + 3 + 4 + 1 + 2 + 3 + 4 +  1 + 2 + 3 + 4 + 1 + 2 + 3 + 4 +
--------------------------------
      CAPO ON 4TH FRET
--------------------------------

[Verse]
     G
Well you done done me and you bet I felt it,
   D/F#
I tried to be chill but you're so hot that I melted,
  Em
I fell right through the cracks,
C
And now I'm tryin to get back...

            G
Before the cool done run out, I'll be givin it my bestest
    D/F#
and Nothin's gonna stop me but divine intervention
    Em
I reckon it's again my turn,
    C           D
To Win some or learn some....


[Chorus]

G              D/F#
But I wont hesitate
            Em
No more, No more
            C              G   D/F#   Em   C
It can not wait; I'm yours


[Verse]

G                                    D/F#
Well, open up your mind and see like me,
                                    Em
Open up your plans and damn you're free.
                                      C
Look into your heart and you'll find love, love, love, love.
 G                                                 D/F#                          Em
Listen to the music of the moment, people dance and sing, we're just one big family
                                       C                           A/C#
And it's our god-forsaken right to be loved, loved, loved, loved, loved.


[Chorus]

G              D/F#
So I won't hesitate
             Em
No more, no more
           C
It cannot wait,
I'm sure

G                      D/F#
There's no need to complicate
             Em
Our time is short
            C             
This is our fate,
         G 
I'm yours


[Bridge]

G                     D/F# 
Doo do do doo doo do, doo do doo do doo do
Em                     D/F#             C
Do you want to come on, scooch on over closer, dear
                       A/C#
And I will nibble your ear
G D/F# Em D/F# C A/C#


[Verse]

                   G                       
I've been spending way too long checking my tongue in the mirror
      D/F#                      
And bending over backwards just to try to see it clearer
     Em
But my breath fogged up the glass
       C
And so I drew a new face and I laughed.
        G                          
I guess what I'll be saying is there ain't no better reason
   D/F#                         
To rid yourself of vanities and just go with the seasons.
  Em
It's what we aim to do.
    C
Our name is our virtue.


[Chorus]

G              D/F#
But I won't hesitate
            Em
No more, No more
            C              G  
It can not wait; I'm yours


[Outro]

G                                    D/F#
Well, open up your mind and see like me,
                                    Em
Open up your plans and damn you're free.
                                      C
Look into your heart and you'll find that the sky is yours.
   G
So please don't, please don't, please don't...
        D/F#
There's no need to complicate.
           Em
'Cause our time is short.
                             C
This oh, this oh, this is our fate.
           A7
I'm yours