4/10

DIFFICULTY

STANDARD TUNING

NO CAPO

Guitar Chord & Songwriting Cheat Sheet

GUITARZERO2HERO FREEBIE:

CHORD & SONGWRITING CHEAT SHEET

MASTER OVER 200+ CHORDS & MORE - YOU'LL ALSO RECEIVE THE LATEST NEWS & UPDATES FROM GUITARZERO2HERO

CHORD SHAPES

This video is a basic step-by-step lesson tutorial on how to play 5 Seconds Of Summer’s new single track “Girls Talk Boys” on guitar featured on the Ghostbuster’s movie soundtrack!
Enjoy! Like the video and subscribe to the channel for more videos in the future!

[Ghostbusting Riff]

e|--------------|
B|--------------|
G|--------------|
D|--------------|
A|--------------|
E|-3-2-1-/7-----|
 

[Intro/Chorus]

e|----------------------------|----------------------------|
B|-----8---7-8-----8--7-8-----|-----8---7-8-----8--7-8-----|
G|-----7---7-7-----7--7-7-----|-----7---7-7-----7--7-7-----|
D|----------------------------|----------------------------|
A|----------------------------|----------------------------|
E|-0--------------------------|-0--------------------------|
                                                                                  
e|----------------------------|----------------------------|
B|-----13--12-13---13--12-13--|-----13--12-13--------------|
G|-----12--12-12---12--12-12--|-----12--12-12--------------|
D|----------------------------|----------------------------|
A|-0--------------------------|----------------------------|
E|----------------------------|-0----------------3-2-1—1/7-|

[Verse]

e|----------------------------|----------------------------|
B|-----8---7-8-----8--7-8-----|-----8---7-8-----8--7-8-----|
G|-----7---7-7-----7--7-7-----|-----7---7-7-----7--7-7-----|
D|----------------------------|----------------------------|
A|----------------------------|----------------------------|
E|-0--------------------------|-0--------------------------|
                                                                                  
e|----------------------------|----------------------------|
B|-----13--12-13---13--12-13--|-----13--12-13--------------|
G|-----12--12-12---12--12-12--|-----12--12-12--------------|
D|----------------------------|----------------------------|
A|-0--------------------------|----------------------------|
E|----------------------------|-0--------------------------|

e|----------------------------|----------------------------|
B|-----8---7-8-----8--7-8-----|-----8---7-8-----8--7-8-----|
G|-----7---7-7-----7--7-7-----|-----7---7-7-----7--7-7-----|
D|----------------------------|----------------------------|
A|----------------------------|----------------------------|
E|-0--------------------------|-0--------------------------|
                                                                                  
e|----------------------------|----------------------------|
B|-----13--12-13---13--12-13--|-----13--12-13--------------|
G|-----12--12-12---12--12-12--|-----12--12-12--------------|
D|----------------------------|----------------------------|
A|-0--------------------------|----------------------------|
E|----------------------------|-0----------------3-2-1—1/7-|
[Chorus]

         Em
When the girls

When the girls talk

When the girls talk boys
             Am
Oh, when the girls

When the girls talk

When the girls talk boys
G F# Em (Bm)    Em
         Hey!


[Verse 1]

Em
   When you’re talking to your girls

Do you talk about me?

Do you say that I’m a sweetheart?

Do you say that I’m a freak?
Am
   Do you tell them white lies?

Do you tell 'em the truth?

Do you tell 'em that you love me

The way I been lovin’ you?


[Pre-Chorus]

Em
  ‘Cause every night you and I find ourselves

Kissin' and touchin' like no one else
Am
  Falling and falling until I fell
       G F# Em (Bm)
For you


[Chorus]

C              G       D     C
 ‘Cause I been talking to my friends
            G    D       C
The way you take away my breath
               G      D    Am
It’s something bigger than myself
               G       D
It’s something I don’t understand
      C
No, no
             G         D      C
I know we’re young and people change
           G     D        C
And we may never feel the same
        G       D        Am
So baby tell me what you say
G F# Em (Bm)


[Chorus]

         Em
When the girls

When the girls talk

When the girls talk boys
             Am
Oh, when the girls

When the girls talk

When the girls talk boys
G F# Em (Bm)    Em
         Hey!


[Verse 2]

Em
   When you’re talking to your girls

Do you talk about me?

Do you tell I’m your lover?

That I’m all that you need?
Am
   Do you tell ‘em white lies?

Do you tell ‘em the truth?

Do you tell 'em that you love me

The way that I’ve been lovin’ you?


[Pre-Chorus]

Em
  ‘Cause every night you and I find ourselves

Kissin' and touchin' like no one else
Am
  Falling and falling until I fell
       G F# Em (Bm)
For you


[Chorus]

C              G       D     C
 ‘Cause I been talking to my friends
            G    D       C
The way you take away my breath
               G      D    Am
It’s something bigger than myself
               G       D
It’s something I don’t understand
      C
No, no
             G         D      C
I know we’re young and people change
           G     D        C
And we may never feel the same
        G       D        Am
So baby tell me what you say

G F# Em (Bm)


[Outro]

         Em
When the girls

When the girls talk

When the girls talk boys
             Am
Oh, when the girls

When the girls talk

When the girls talk boys

G F#       Em   (Bm)   Em
 (When the girls talk boys)
Em
Talk talk talk talk

Talk talk talk talk

When the girls talk boys!
Am
Talk talk talk talk

Talk talk talk talk
G F# Em (Bm)    Em
         Hey!