3.5/10

DIFFICULTY

STANDARD TUNING

CAPO ON 2ND FRET

Guitar Chord & Songwriting Cheat Sheet

GUITARZERO2HERO FREEBIE:

CHORD & SONGWRITING CHEAT SHEET

MASTER OVER 200+ CHORDS & MORE - YOU'LL ALSO RECEIVE THE LATEST NEWS & UPDATES FROM GUITARZERO2HERO

CHORD SHAPES

This video is a basic step-by-step lesson tutorial on how to play Little Mix’s latest single “Secret Love Song” on Guitar feat. Jason Derulo.

Enjoy! Like the video and subscribe to the channel for more videos in the future!

[Solo]
e|-----|------------|------------|-------------|-------------------|
B|-----|------------|------------|-------------|-------------------|
G|-----|-7------76-|-6----------|-------------|-7-----7-----------|
D|-7/9-|------9-----|----9---7h9-|-------------|-7h9---7h9—p7------|
A|-----|------------|------------|-7---5------|-------------h9p7--|
E|-----|------------|------------|-------------|-------------------|


e|------------|------------------|-------------|------------|
B|------------|------------------|-------------|------------|
G|------------|----7-9-9b11b9b11-|-------------|------------|
D|------------|------------------|-------------|------------|
A|-/9---------|------------------|-------------|------------|
E|------------|------------------|-------------|------------|
   Do I ever cross...              Do I ever cross...

e|------------|------------------|------------------------|
B|------------|------------------|-7h8-7---------------7--|
G|------------|------7---7-7h9-7-|-7---7-(repeat x10}--7--|
D|------------|--7h9-------------|------------------------|
A|------------|------------------|------------------------|
E|------------|------------------|------------------------|
   Do I ever cross...              Do I ever cross...

----------------------------------
          CAPO ON 2ND FRET
----------------------------------

[Intro]
         G                                            Em
When you hold me in the street and you kiss me on the dance floor
                     C
I wish that it could be like that
Why can't it be like that
          G   D
Cause I'm yours


[Verse]
   G           
We keep behind closed doors
                      Em
Every time I see you, I die a little more
                       C
Stolen moments that we steal as the curtain falls
               G   D
It'll never be enough
 

[Verse]
         G
It's obvious you're meant for me
                       Em
Every piece of you, it just fits perfectly
                    C
Every second, every thought, I'm in so deep
                       G     D
But I'll never show it on my face


[Pre-chorus}
Am               G/B                   Am    D
But we know this we got a love that is homeless


[Chorus]
            G
Why can't I hold you in the street?
                            Em
Why can't I kiss you on the dance floor?
                     C
I wish that it could be like that
                                     G   D
Why can't it be like that? Cause I'm yours


[Verse]
                 G    
When you're with him, do you call his name
                             Em 
Like you do when you're with me, does it feel the same?
                         C
Would you leave if I was ready to settle down?
                              G  D
Or would you play it safe and stay?


[Pre-Chorus]
Am                  G/B                   Am    D
Girl you know this, we got a love that is hopeless


[Chorus]
              G
Why can't you hold me in the street?
                            Em
Why can't I kiss you on the dance floor?
                     C
I wish that it could be like that
                                     G   D
Why can't we be like that? Cause I'm yours


[Bridge]
           Em               
And nobody knows 
      D/F#                 
I'm in love with someone's baby
G                Am
   I don't wanna hide us away
Em                        D/F# 
 Tell the world about the love we making
G        Am            C
   I'm living for that day
   D
Someday


[Chorus]
            G           
Why can't I hold you in the street?
                            Em
Why can't I kiss you on the dance floor?
                     C
I wish that we could be like that
Why can't we be like that?
          G          D
Cause I'm yours, I'm yours


[Chorus]
              G
Why can't you hold me in the street?
                            Em
Why can't I kiss you on the dance floor?
                     C
I wish that it could be like that
                                     G  D
Why can't it be like that? Cause I'm yours
            G     
Why can't I say that I'm in love?
                          Em
I wanna shout it from the rooftops
                     C
I wish that it could be like that
                                     G  D
Why can't we be like that? Cause I'm yours


[Outro]
             C
Why can't we be like that?
                    D
Wish we could be like that