6/10

DIFFICULTY

STANDARD TUNING

CAPO ON 3RD FRET

Guitar Chord & Songwriting Cheat Sheet

GUITARZERO2HERO FREEBIE:

CHORD & SONGWRITING CHEAT SHEET

MASTER OVER 200+ CHORDS & MORE - YOU'LL ALSO RECEIVE THE LATEST NEWS & UPDATES FROM GUITARZERO2HERO

To celebrate the release of the Red Hot Chili Peppers’ new album “The Getaway”, I’ll be counting down the Top 7 RHCP guitar riffs of all time!
It was tough narrowing it down to 7, but in my opinion these are the 7 most recognisable and popular guitar riffs the Chilis ever came up with!

After the count down I will run through each riff step by step with annotated tabs!

7. By The Way
6. Scar Tissue
5. Can’t Stop
4. Otherside
3. Snow (Hey Oh)
2. Californication
1. Under the bridge.

What do you guys think? Any songs I left out? Did I get it right? Let me know in the comments ūüôā
Enjoy! Like the video and subscribe to the channel for more videos in the future!

BY THE WAY
e|-------------------------|-------------------------|
B|-------------------------|-------------------------|
G|-------------------------|-------------------------|
D|-10-10-10-10-10-10-10-10-|-10-10-10-10-10-10-10-10-|
A|--8--8--8--8--8--8--8--8-|--7--7--7--7--7--7--7--7-|
E|-------------------------|-------------------------|

e|-----------------|-----------------|
B|-----------------|-----------------|
G|-----------------|-----------------|
D|-----------------|-----------------|
A|-7-7-7-7-7-7-7-7-|-7-7-7-7-7-7-7-7-|
E|-5-5-5-5-5-5-5-5-|-5-5-5-5-5-5-5-5-|
SCAR TISSUE
e|-----------------------------------------------------------------|
B|-------10----10---10---10----------------------------------------|
G|----------------------------9--9/10---10----10----10----10\9-----|
D|-----------------------------------------------------------------|
A|--8--------8----8----8-------------------------------------------|
E|----------------------------8--8/10------10----10----10-------8--|

e|-----------------------------------------------------------------|
B|-------10----10---10---10-8--------------------------------------|
G|-------------------------------------9/10-------12p10-12p10------|
D|-----------------------------------------------------------------|
A|--8--------8----8----8-------------------------------------------|
E|-------------------------------------8/10------------------------|
CAN'T STOP
e|-------------------------------|------------------------------|
B|-------------------------------|------------------------------|
G|------7--9---------7--9--------|----7--9---------7--9---------|
D|-------------------------------|------------------------------|
A|-7-7--------7-7-7--------7-7-7-|-5--------5-5-5-------5-5-5---|
E|-------------------------------|------------------------------|                                                                         
e|-------------------------------|------------------------------|
B|-------------------------------|------------------------------|
G|------7--9---------7--9--------|----7--9---------7--9---------|
D|-------------------------------|------------------------------|
A|-------------------------------|------------------------------|
E|-7----------7-7-7--------7-7-7-|-8--------8-8-8-------8-8-8---|
OTHERSIDE
e|-------------------------------------------|
B|-------------------------------------------|
G|-------------------------------------------|
D|----------7--7--9-7------------------------|
A|-7--7--7------------10-7---5--5--5---------|
E|-------------------------------------------|

e|-------------------------------------------|
B|-------------------------------------------|
G|-------------------------------------------|
D|----------7--7--9-7------------------------|
A|-7--7--7------------10-7--7--7-7--5--5--5--|
E|-------------------------------------------|
OTHERSIDE
e|-------------------------------------------|
B|-------------------------------------------|
G|-------------------------------------------|
D|----------7--7--9-7------------------------|
A|-7--7--7------------10-7---5--5--5---------|
E|-------------------------------------------|

e|-------------------------------------------|
B|-------------------------------------------|
G|-------------------------------------------|
D|----------7--7--9-7------------------------|
A|-7--7--7------------10-7--7--7-7--5--5--5--|
E|-------------------------------------------|
SNOW (HEY OH)
e|---------------------------------------|
B|---------------------------------------|
G|-----4---4h6p4---4-----4---4h6p4---4---|
D|---6---6-------6-----6---6-------6-----|
A|-6-----------------7-------------------|
E|---------------------------------------|

e|---------------------------------------|
B|---------------------------------------|
G|-------------------------6---6h8p6---6-|
D|-----4---4h6p4---4-----8---8-------8---|
A|---6---6-------6---6/9-----------------|
E|-7-------------------------------------|
CALIFORNICATION
e|---------------------------|-------------------|
B|-----0-1-------------------|-------------------|
G|---------------------------|-----0-2-----------|
D|---2-------(2)-(0h2p0)-----|-----------(0)-----|
A|-0---------------------(3)-|---3-----------(3)-|
E|---------------------------|-1-----------------|
UNDER THE BRIDGE
e|---------------------------|---------------------------|
B|-3----------3--------------|---------------------------|
G|-------2-------2-----------|------------3--------------|
D|----4-----4----------------|-------4-------4---4-2-----|
A|-5-----------------4-2-----|----4-----4------------5-2-|
E|-----------------------5-4-|-2-------------------------|

e|-----------------------------|---------------------------|
B|-------------3h5p3-----------|---------------------------|
G|---------2---------2---------|------------3--------------|
D|-----4-----4-----------4/6-6-|-------4-------4---4-2-----|
A|-4/5---5---------------5/7-7-|----4-----4------------5-2-|
E|-----------------------------|-2-------------------------|

e|-----------------------------|---------------------------|
B|--------------3--------------|---------------------------|
G|---------2-------2-----------|------------3--------------|
D|-----4------4----------------|-------4-------4---4-2-----|
A|-4/5---5-------------4-2-----|----4-----4------------5-2-|
E|-------------------------5-4-|-2-------------------------|

e|------------------------------|----------------------------|
B|--------------3h5p3-----------|----------------------------|
G|---------2----------2---------|------------3-------3-------|
D|-----4------4-----------4/6-6-|-------4-------4------4-----|
A|-4/5---5----------------5/7-7-|----4-----4------4------4/7-|
E|------------------------------|-2--------------------------|