3.5/10

DIFFICULTY

STANDARD TUNING

CAPO ON 2ND FRET

Guitar Chord & Songwriting Cheat Sheet

GUITARZERO2HERO FREEBIE:

CHORD & SONGWRITING CHEAT SHEET

MASTER OVER 200+ CHORDS & MORE - YOU'LL ALSO RECEIVE THE LATEST NEWS & UPDATES FROM GUITARZERO2HERO

CHORD SHAPES

This video is a basic step-by-step lesson tutorial on how to play Elvis’ classic ballad “Can’t Help Falling In Love” on Guitar. This is such a beautiful song, great to play and sing!

If you want to play along to the Twenty One Pilots rendition of this song, then just take the capo off the second fret! all the chord shapes will be the same

Enjoy! Like the video and subscribe to the channel for more videos in the future!

------------------------------
      CAPO ON 2ND FRET
------------------------------

[Intro]
   C             G             C             G
e|-------------|-------------|-------------|-------------|
B|-------1-----|-------0-----|-------1-----|-------0-----|
G|-----0---0---|-----0---0---|-----0---0---|-----0---0---|
D|---2-------2-|---0-------0-|---2-------2-|---0-------0-|
A|-3-----------|-------------|-3-----------|-------------|
E|-------------|-3-----------|-------------|-3-----------|


[Verse]
   C             Em            Am
e|-------------|-------------|-------------|-------------|
B|-------1-----|-------0-----|-------1-----|-------1-----|
G|-----0---0---|-----0---0---|-----2---2---|-----2---2---|
D|---2-------2-|---2-------2-|---2-------2-|---2-------2-|
A|-3-----------|-------------|-0-----------|-0-----------|
E|-------------|-0-----------|-------------|-------------|

   F             C             G
e|-------------|-------------|-------------|-------------|
B|-------1-----|-------1-----|-------0-----|-------0-----|
G|-----2---2---|-----0---0---|-----0---0---|-----0---0---|
D|---3-------3-|---2-------2-|---0-------0-|---0-------0-|
A|-------------|-3-----------|-------------|-------------|
E|-1-----------|-------------|-3-----------|-3-----------|

   F             G             Am            F
e|-------------|-------------|-------------|-------------|
B|-------1-----|-------0-----|-------1-----|-------1-----|
G|-----2---2---|-----0---0---|-----2---2---|-----2---2---|
D|---3-------3-|---0-------0-|---2-------2-|---3-------3-|
A|-------------|-------------|-0-----------|-------------|
E|-1-----------|-3-----------|-------------|-1-----------|

   C             G             C
e|-------------|-------------|-------------|-------------|
B|-------1-----|-------0-----|-------1-----|-------1-----|
G|-----0---0---|-----0---0---|-----0---0---|-----0---0---|
D|---2-------2-|---0-------0-|---2-------2-|---2-------2-|
A|-3-----------|-------------|-3-----------|-3-----------|
E|-------------|-3-----------|-------------|-------------|


[Chorus]
   Em            B7           
e|-------------|-------------|
B|-------0-----|-------0-----|
G|-----0---0---|-----2---2---|
D|---2-------2-|---1-------1-|
A|-------------|-2-----------|
E|-0-----------|-------------|  x3

   Em             A7           Dm            G
e|-------------|-------------|-------1-----|-------------|
B|-------0-----|-------2-----|-----3---3---|-------0-----|
G|-----0---0---|-----0---0---|---2-------2-|-----0---0---|
D|---2-------2-|---2-------2-|-0-----------|---0-------0-|
A|-------------|-0-----------|-------------|-------------|
E|-0-----------|-------------|-------------|-3-----------|
------------------------------
      CAPO ON 2ND FRET
------------------------------

[Intro]
C G C G


[Verse] 
C    Em  Am        F     C    G
Wise men say, only fools rush in
    F G     Am   F          C    G    C
but I can't help falling in love with you

C     Em Am             F  C G
Shall I  stay, would it be a sin?
   F G     Am   F          C    G    C
If I can't help falling in love with you


[Chorus]
Em           B7    Em            B7
Like a river flows surely to the sea
Em            B7
Darling so it goes
Em          A7           Dm  G
some things are meant to be


[Verse]
C    Em Am            F     C    G
Take my hand, take my whole life too
    F G     Am   F          C    G    C
for I can't help falling in love with you


[Chorus]
Em           B7    Em            B7
Like a river flows surely to the sea
Em            B7
Darling so it goes
Em          A7           Dm  G
some things are meant to be


[Verse]
C    Em Am            F     C    G
Take my hand, take my whole life too
    F G     Am   F          C    G    C
for I can't help falling in love with you
    F G     Am   F          C    G    C
for I can't help falling in love with you