6.5/10

DIFFICULTY

STANDARD TUNING

CAPO ON 3RD FRET

Guitar Chord & Songwriting Cheat Sheet

GUITARZERO2HERO FREEBIE:

CHORD & SONGWRITING CHEAT SHEET

MASTER OVER 200+ CHORDS & MORE - YOU'LL ALSO RECEIVE THE LATEST NEWS & UPDATES FROM GUITARZERO2HERO

CHORD SHAPES

To celebrate the return house stark to Winterfell (spoiler alert!) and by request, this video is a detailed step-by-step lesson tutorial on how to play a fingerstyle solo rendition of the Game Of Thrones Theme Song!

Enjoy! Like the video and subscribe to the channel for more videos in the future!

-------------------------
    CAPO ON 3RD FRET
-------------------------

[Intro]
     Am                      A  
e|--0---------------|    |--0----------------|
B|------------1h--3-|    |------------2h--3--|
G|-------2----------|    |-------2-----------|
D|------------------|    |-------------------|
A|--0---------------|    |--0----------------|
E|------------------| x4 |-------------------| x4


[Verse] X2
    Am
e|--0-----------------------------|---------0--------------------------|
B|--------------------------------|--1h--3----------------------1h--3--|
G|------------2----2---------2----|-------------------2----------------|
D|-------2--------------2---------|--------------2---------2-----------|
A|--0--------------0--------------|--0----------------0----------------|
E|--------------------------------|------------------------------------|

    Em
e|------------------------------------|----------------------------------|
B|--0----------------0----------------|--0----------------0--------------|
G|------------0h--2------------0h--2--|------------0h--2------------0----|
D|-------2----------------2-----------|-------2----------------2---------|
A|------------------------------------|----------------------------------|
E|--0----------------0----------------|--0----------------0--------------|

    G
e|--------------------------------|----------------------------------|
B|--3-----------------------------|--1p--0--3------------------------|
G|-----------------0--------------|-------------------0--------------|
D|------------0--------------0----|-----------------------------0----|
A|-------2--------------2---------|--------------2---------2---------|
E|--3--------------3--------------|--3----------------3--------------|

    A5
e|--------------------------------------|----------------------------------|
B|--1p--0-------------------------------|----------------------------------|
G|---------2-----------2----------------|--2----------------2---------2----|
D|--0-----------3h--5-------2----3h--5--|-------2----3h--5-------2---------|
A|---------0-----------0----------------|--0----------------0--------------|
E|--------------------------------------|----------------------------------|

[Verse Variation]
    Am
e|--0-----------------------------|---------0--------------------------|
B|--------------------------------|--1h--3----------------------1h--3--|
G|------------2----2---------2----|-------------------2----------------|
D|-------2--------------2---------|--------------2---------2-----------|
A|--0--------------0--------------|--0----------------0----------------|
E|--------------------------------|------------------------------------|

    Em
e|------------------------------------|----------------------------------|
B|--0----------------0----------------|--0----------------0--------------|
G|------------0h--2------------0h--2--|------------0h--2------------0----|
D|-------2----------------2-----------|-------2----------------2---------|
A|------------------------------------|----------------------------------|
E|--0----------------0----------------|--0----------------0--------------|

    G
e|--------------------------------|------------------------------|
B|--3-----------------------------|--0------1------0-------------|
G|-----------------0--------------|-----------------------0------|
D|------------0--------------0----|------------------------------|
A|-------2--------------2---------|---------3------2-------------|
E|--3--------------3--------------|--3--------------------3------|

    A5
e|------------------------------------|----------------------------------|
B|------------------------------------|----------------------------------|
G|--2----------------2----------------|--2----------------2---------0----|
D|-------2----3h--5-------2----3h--5--|-------2----3h--5-------2---------|
A|--0----------------0----------------|--0----------------0--------------|
E|------------------------------------|----------------------------------|

[Chorus]
    F                                C
e|--5--------------5--------------|--3-----------------------------|
B|--1---------1---------1---------|--1--------------1--------------|
G|--2----2-------------------2----|--0---------0---------0---------|
D|--------------------------------|-------2-------------------0----|
A|--------------------------------|--3--------------3--------------|
E|--1--------------1--------------|--------------------------------|

    Dm                               Am
e|--1--------------1--------------|--0-----------------------------|
B|--3---------3---------3---------|--1--------------1--------------|
G|--2----2-------------------2----|--2---------2---------2---------|
D|--0--------------0--------------|-------2------------------------|
A|--------------------------------|--0--------------0--------------|
E|--------------------------------|---------------------------0----|

    F                                Am/D           Em7
e|--------------------------------|--------------------------------|
B|-----------------1--------------|--1--------------3--------------|
G|--2-------------------2---------|--2---------2----0---------0----|
D|--3---------3--------------0----|--0----0--------------2---------|
A|-------3------------------------|--------------------------------|
E|--1--------------1--------------|-----------------0--------------|

    A5
e|--0---------------------------------|----------------------------------|
B|------------------------------------|----------------------------------|
G|-------------------2----------------|--2----------------2---------0----|
D|-------2----3h--5-------2----3h--5--|-------2----3h--5-------2---------|
A|--0----------------0----------------|--0----------------0--------------|
E|------------------------------------|----------------------------------|

[Chorus Vartiation]
    F                                C
e|--5--------------5--------------|--3-----------------------------|
B|--1---------1---------1---------|--1--------------1--------------|
G|--2----2-------------------2----|--0---------0---------0---------|
D|--------------------------------|-------2-------------------0----|
A|--------------------------------|--3--------------3--------------|
E|--1--------------1--------------|--------------------------------|

    Dm                               Am
e|--1--------------1--------------|--0-----------------------------|
B|--3---------3---------3---------|--1--------------1--------------|
G|--2----2-------------------2----|--2---------2---------2---------|
D|--0--------------0--------------|-------2------------------------|
A|--------------------------------|--0--------------0--------------|
E|--------------------------------|---------------------------0----|

    F                                Am/D           Em
e|--------------------------------|--------------------------------|
B|-----------------1--------------|--1--------------0--------------|
G|--2-------------------2---------|--2---------2----0---------0----|
D|--3---------3--------------0----|--0----0--------------2---------|
A|-------3------------------------|--------------------------------|
E|--1--------------1--------------|-----------------0--------------|

    A5
e|------------------------------------|----------------------------------|
B|------------------------------------|----------------------------------|
G|--2----------------2----------------|--2----------------2--------------|
D|-------2----3h--5-------2----3h--5--|-------2----3h--5-------2----3h5--|
A|--0----------------0----------------|--0----------------0--------------|
E|------------------------------------|----------------------------------|

[Outro]
e|--5----------------5----------------|--5----------------5------------|
B|-------5----6h--8-------5----6h--8--|-------5----6h--8---------------|
G|------------------------------------|--------------------------------|
D|------------------------------------|--------------------------------|
A|------------------------------------|--------------------------------|
E|------------------------------------|--------------------------------|