5/10

DIFFICULTY

STANDARD TUNING

NO CAPO

Guitar Chord & Songwriting Cheat Sheet

GUITARZERO2HERO FREEBIE:

CHORD & SONGWRITING CHEAT SHEET

MASTER OVER 200+ CHORDS & MORE - YOU'LL ALSO RECEIVE THE LATEST NEWS & UPDATES FROM GUITARZERO2HERO

This video is a basic step-by-step lesson tutorial on how to play one of the best rock songs of the 90’s, Nirvana’s classic track “Smells Like Teen Spirit” on Guitar.

This is a great one for beginners looking to push their speed and looking to delve into guitar solos.

Enjoy! Like the video and subscribe to the channel for more videos in the future!

https://tabs.ultimate-guitar.com/n/nirvana/smells_like_teen_spirit_ver3_tab.htm

[INTRO/CHORUS RIFF]

e|----------------------|----------------------|
B|----------------------|----------------------|
G|----------------3-3-0-|----------------6-6-6-|
D|-3--3-3-x-x-x-x-3-3-0-|-6--6-6-x-x-x-x-6-6-6-|
A|-3--3-3-x-x-x-x-1-1-0-|-6--6-6-x-x-x-x-4-4-4-|
E|-1--1-1-x-x-x-x-------|-4--4-4-x-x-x-x-------|


[VERSE]

(Bass)
G|-----------------|-----------------|-----------------|-----------------|
D|-----------------|-----------------|-----------------|-----------------|
A|---------1-1-1-1-|---------4-4-4-4-|---------1-1-1-1-|---------4-4-4-4-|
E|-1-1-1-1---------|-4-4-4-4---------|-1-1-1-1---------|-4-4-4-4---------|

(Guitar)
e|----------1------|-----------------|----------1------|-----------------|
B|--------1--------|-----------------|--------1--------|-----------------|
G|-----------------|-----------------|-----------------|-----------------|
D|-----------------|-----------------|-----------------|-----------------|
A|-----------------|-----------------|-----------------|-----------------|
E|-----------------|-----------------|-----------------|-----------------|


[PRE-CHORUS] x2

(Bass)
G|-----------------|-----------------|-----------------|-----------------|
D|-----------------|-----------------|-----------------|-----------------|
A|---------1-1-1-1-|---------4-4-4-4-|---------1-1-1-1-|---------4-4-4-4-|
E|-1-1-1-1---------|-4-4-4-4---------|-1-1-1-1---------|-4-4-4-4---------|

(Guitar)
e|-----1-1-----1-1-|-----1-1-----1-1-|-----1-1-----1-1-|-----1-1-----1-1-|
B|-1-1-----1-1-----|-1-1-----1-1-----|-1-1-----1-1-----|-1-1-----1-1-----|
G|-----------------|-----------------|-----------------|-----------------|
D|-----------------|-----------------|-----------------|-----------------|
A|-----------------|-----------------|-----------------|-----------------|
E|-----------------|-----------------|-----------------|-----------------|

 
[POST CHORUS]
e|--------------------|-----------------|--------------------|-----------------|
B|--------------------|-----------------|--------------------|-----------------|
G|---------------3b---|-----------------|---------------3b---|-----------------|
D|--------------------|-----------------|--------------------|-----------------|
A|-3-3-2-3-4-4--------|-3-3-2-3-8-8-6---|-3-3-2-3-4-4--------|-3-3-2-3-8-8-7-6-|
E|-1-1-0-1-2-2--------|-1-1-0-1-6-6-4-0-|-1-1-0-1-2-2--------|-1-1-0-1-6-6-5-4-|
              hey!                              hey!


[SOLO]

(guitar Two plays chorus riff 6 times)

e|--------------|-----------------|-------------|-------------|
B|--------------|-----------------|-------------|-------------|
G|-----8-10-----|-8-8b10----6--5--|-6--5--------|-------------|
D|--10--------6-|-----------------|-------8-6---|-8-8b10-6--5-|
A|--------------|-----------------|-------------|-------------|
E|--------------|-----------------|-------------|-------------|    x2

e|-------------|---------------|
B|-------------|---------------|
G|-------------|---------------|
D|-6-5---6-5---|-6-5---6p5-5\3-|
A|-------------|---------------|
E|-------------|---------------|    x4


***********************************

| /   Slide up
| h   Hummer-on
| ~   Vibrato
| x   Dead note
| b   Bend

***********************************