6/10

DIFFICULTY

DROP D TUNING

NO CAPO

Guitar Chord & Songwriting Cheat Sheet

GUITARZERO2HERO FREEBIE:

CHORD & SONGWRITING CHEAT SHEET

MASTER OVER 200+ CHORDS & MORE - YOU'LL ALSO RECEIVE THE LATEST NEWS & UPDATES FROM GUITARZERO2HERO

This video is a basic step-by-step lesson tutorial on how to play Bring Me The Horizon’s track “True Friends” on guitar.

Thanks to my friend Bec Hammond for laying vocals check out her covers channel here: https://www.youtube.com/watch?v=ur9JRc7aGqM 

Enjoy! Like the video and subscribe to the channel for more videos in the future!


[Intro]

e|-------------|-------------|-------------|-------------|
B|--6-5---6-5--|--6-5---6-5--|--6-5---6-5--|--6-5---6-5--|
G|-7-7---7-7---|-3-3---3-3---|-0-0---0-0---|-------------|
D|-------------|-------------|-------------|-0-0---0-0---|
A|-------------|-------------|-------------|-------------|
D|-------------|-------------|-------------|-------------|


[Chorus/Heavy Riff]
e|-------------------------------------|---------------------------------|
B|-------------------------------------|---------------------------------|
G|-------------------------------------|---------------------------------|
D|-------------------------------------|---------------------------------| 
A|-------------------------------------|---------8---------------8---7-8-|
D|-0-0-0-0-10-0-0-0-0-0-0-0-10-0-10-10-|-8-8-8-8---8-8-8-8-8-8-8---8-----|

   1 e + a 2  e + a 3 e + a 4  e +  a    1 e + a 2 e + a 3 e + a 4 e + a


e|---------------------------------|---------------------------------|
B|---------------------------------|---------------------------------|
G|---------------------------------|---------------------------------|
D|---------------------------------|---------------------------------| 
A|---------8---------------8-------|---------3---------------3-------|
D|-5-5-5-5---5-5-5-5-5-5-5---3-3-3-|-0-0-0-0---0-0-0-0-0-0-0---3-2-0-|

   1 e + a 2 e + a 3 e + a 4 e + a   1 e + a 2 e + a 3 e + a 4 e + a


[Verse]
e|----------|---------|---------|---------|
B|----------|---------|---------|---------|
G|----------|---------|---------|---------|
D|----------|---------|---------|---------|
A|----------|---------|---------|---------|
D|--0---10--|--8---7--|----5----|----8----|

   x12  x4    x12  x4     x16       x16

e|----------|---------|---------|---------|
B|----------|---------|---------|---------|
G|----------|---------|---------|---------|
D|----------|---------|---------|---------|
A|----------|---------|---------|---------|
D|--0---10--|--8---7--|----5----|--8--10--|

   x12  x4    x12  x4     x16     x12 x4


[Prechorus]
e|-----------------------------------|--------------------------------------|
B|-----------------------------------|--------------------------------------|
G|-----------------------------------|--------------------------------------|
D|-----------------------------------|--------------------------------------| 
A|-----------------------------------|--------------------------------------|
D|-0-0-0-0-10-0-0-0-0-0-0-0-10-0-0-0-|-0-0-0-0-10-0-0-0-0-0-0-0-10-10-10-10-|

   1 e + a 2  e + a 3 e + a 4  e + a   1 e + a 2  e + a 3 e + a 4  e  +  a


e|-----------------------------------|----------------------------------|
B|-----------------------------------|----------------------------------|
G|-----------------------------------|----------------------------------|
D|-----------------------------------|----------------------------------| 
A|-----------------------------------|--------------------------3-------|
D|-0-0-0-0-10-0-0-0-0-0-0-0-10-0-0-0-|-0-0-0-0-10-0-0-0-0-0-0-0---3-2-0-|

   1 e + a 2  e + a 3 e + a 4  e + a   1 e + a 2  e + a 3 e + a 4 e + a


[Break - Guitar 1]
e|---------------------------------|---------------------------------|
B|-3-3-3-3-3-3-3-3-3-3-3-3-3-3-3-3-|-3-3-3-3-3-3-3-3-3-5-5-5-5-5-5-5-|
G|-2-2-2-2-2-2-2-2-2-2-2-2-2-2-2-2-|-2-2-2-2-2-2-2-2-2-5-5-5-5-5-5-5-|
D|-0-0-0-0-0-0-0-0-0-0-0-0-0-0-0-0-|-0-0-0-0-0-0-0-0-0-0-0-0-0-0-0-0-| 
A|---------------------------------|---------------------------------|
D|---------------------------------|---------------------------------|

   1 e + a 2 e + a 3 e + a 4 e + a   1 e + a 2 e + a 3 e + a 4 e + a 


e|---------------------------------|---------------------------------|
B|-3-3-3-3-3-3-3-3-3-3-3-3-3-3-3-3-|-3-3-3-3-3-3-3-3-3-8-8-8-8-5-5-5-|
G|-2-2-2-2-2-2-2-2-2-2-2-2-2-2-2-2-|-2-2-2-2-2-2-2-2-2-5-5-5-5-5-5-5-|
D|-0-0-0-0-0-0-0-0-0-0-0-0-0-0-0-0-|-0-0-0-0-0-0-0-0-0-0-0-0-0-0-0-0-| 
A|---------------------------------|---------------------------------|
D|---------------------------------|---------------------------------|

   1 e + a 2 e + a 3 e + a 4 e + a   1 e + a 2 e + a 3 e + a 4 e + a


[Break - Guitar 2]
e|---------------------------------|
B|-----1---------------------------|
G|---2-----------------------------|
D|-0-------------------------------|
A|---------------------------------|
D|---------------------------------| x4

   1 e + a 2 e + a 3 e + a 4 e + a  


[Build Up - Guitar 1]
e|---------|---------|---------|----------|
B|---------|---------|---------|----------|
G|---------|---------|---------|----------|
D|----0----|----5----|----8----|--5---10--|
A|----0----|----5----|----8----|--5---10--|
D|----0----|----5----|----8----|--5---10--|

     x16       x16       x16     x12  x4



[Build Up - Guitar 2]
e|-------------------------------|--------------------------------|
B|-------------------------------|-------------5b6b5---5b6b5------|
G|------5h7-5--------------------|-----5h7-5---------5-------5----|
D|----7--------7-5h7-5\3-3h5-7p5-|---7-------7--------------------|
A|--5----------------------------|-5------------------------------|
D|-------------------------------|--------------------------------|

    D D D   U  D D   D   D   D     D D D   U D U    D  U     D