5/10

DIFFICULTY

STANDARD TUNING

NO CAPO

Guitar Chord & Songwriting Cheat Sheet

GUITARZERO2HERO FREEBIE:

CHORD & SONGWRITING CHEAT SHEET

MASTER OVER 200+ CHORDS & MORE - YOU'LL ALSO RECEIVE THE LATEST NEWS & UPDATES FROM GUITARZERO2HERO

CHORD SHAPES

This video is a basic step-by-step lesson tutorial on how to play The Plain White T’s classic track “Hey There Delilah” on guitar.

Enjoy! Like the video and subscribe to the channel for more videos in the future!

https://tabs.ultimate-guitar.com/p/plain_white_ts/hey_there_delilah_ver2_tab.htm

 

[Intro]
   D                 F#m               D                 F#m
e|-----------------|-----------------|-----------------|-----------------|
B|---3---3---3---3-|---2---2---2---2-|---3---3---3---3-|---2---2---2---2-|
G|---2---2---2---2-|---2---2---2---2-|---2---2---2---2-|---2---2---2---2-|
D|-0---0---0---0---|-4---4---4---4---|-0---0---0---0---|-4---4---4---4---|
A|-----------------|-----------------|-----------------|-----------------|
E|-----------------|-----------------|-----------------|-----------------|
   1 + 2 + 3 + 4 +   1 + 2 + 3 + 4 +   1 + 2 + 3 + 4 +   1 + 2 + 3 + 4 +

[Verse]
   D                 F#m               D                 F#m
e|-----------------|-----------------|-----------------|-----------------|
B|---3---3---3---3-|---2---2---2---2-|---3---3---3---3-|---2---2---2-----|
G|---2---2---2---2-|---2---2---2---2-|---2---2---2---2-|---2---2---2-----|
D|-0---0---0---0---|-4---4---4---4---|-0---0---0---0---|-4---4---4---4---|
A|-----------------|-----------------|-----------------|-----------------|
E|-----------------|-----------------|-----------------|-----------------|
   1 + 2 + 3 + 4 +   1 + 2 + 3 + 4 +   1 + 2 + 3 + 4 +   1 + 2 + 3 + 4 +

   Bm                G       A         Bm              A
e|-----------------|-----------------|-----------------|-----------------|
B|---3---3---3-----|---3---3---2---2-|---3---3---3---3-|---2---2---5---5-|
G|---4---4---4-----|---4---4---2---2-|---4---4---4---4-|---2---2---2---2-|
D|-----------------|-----------------|-----------------|-----------------|
A|-2---2---2---0---|---------0---0---|-2---2---2---2---|-0---0---0---0---|
E|-----------------|-3---3-----------|-----------------|-----------------|
   1 + 2 + 3 + 4 +   1 + 2 + 3 + 4 +   1 + 2 + 3 + 4 +   1 + 2 + 3 + 4 +

[Chorus]
   D                 Bm                D                 Bm
e|-----------------|-----------------|-----------------|-----------------|
B|---3---3---3-----|---3---3---3---3-|---3---3---3-----|---3---3---3---3-|
G|---2---2---2-----|---4---4---4---4-|---2---2---2-----|---4---4---4---4-|
D|-0---0---0-------|-----------------|-0---0---0-------|-----------------| x 2
A|-------------0---|-2---2---2---4---|--------------0--|-2---2---2---4---|
E|-----------------|-----------------|-----------------|-----------------|
   1 + 2 + 3 + 4 +   1 + 2 + 3 + 4 +   1 + 2 + 3 + 4 +   1 + 2 + 3 + 4 +

[Interlude]
   D           D/A
e|-----------------|
B|---3---3---3---3-|
G|---2---2---2---2-|
D|-0---0---0-------|
A|-------------0---|
E|-----------------|
   1 + 2 + 3 + 4 +

[Chorus 2]
   D                 Bm                D                 Bm
e|-----------------|-----------------|-----------------|-----------------|
B|---3---3---3-----|---3---3---3---3-|---3---3---3-----|---3---3---3---3-|
G|---2---2---2-----|---4---4---4---4-|---2---2---2-----|---4---4---4---4-|
D|-0---0---0-------|-----------------|-0---0---0-------|-----------------| 
A|-------------0---|-2---2---2---4---|--------------0--|-2---2---2---4---|
E|-----------------|-----------------|-----------------|-----------------|
   1 + 2 + 3 + 4 +   1 + 2 + 3 + 4 +   1 + 2 + 3 + 4 +   1 + 2 + 3 + 4 +

   D                 Bm                D                 Bm
e|-----------------|-----------------|-----------------|-----------------|
B|---3---3---3-----|---3---3---3---3-|---3---3---3-----|---3---3---3-----|
G|---2---2---2-----|---4---4---4---4-|---2---2---2-----|---4---4---4-----|
D|-0---0---0-------|-----------------|-0---0---0-------|-----------------| 
A|-------------0---|-2---2---2---4---|--------------0--|-2---2---2---0---|
E|-----------------|-----------------|-----------------|-----------------|
   1 + 2 + 3 + 4 +   1 + 2 + 3 + 4 +   1 + 2 + 3 + 4 +   1 + 2 + 3 + 4 +

[Bridge]
   G                 A                 D                 Bm
e|-----------------|-----------------|-----------------|-----------------|
B|---3---3---3---3-|---2---2---2---2-|---3---3---3-----|---3---3---3-----|
G|---4---4---4---4-|---2---2---2---2-|---2---2---2-----|---4---4---4-----| 
D|-----------------|-----------------|-0---0---0-------|-----------------|
A|-----------------|-0---0---0---0---|-------------0---|-2---2---2---0---|
E|-3---3---3---3---|-----------------|-----------------|-----------------|
   1 + 2 + 3 + 4 +   1 + 2 + 3 + 4 +   1 + 2 + 3 + 4 +   1 + 2 + 3 + 4 +

   G                 A                 D                 Bm
e|-----------------|-----------------|-----------------|-----------------|
B|---3---3---3---3-|---2---2---2---2-|---3---3---3-----|---3---3---3-----|
G|---4---4---4---4-|---2---2---2---2-|---2---2---2-----|---4---4---4-----| 
D|-----------------|-----------------|-0---0---0-------|-----------------|
A|-----------------|-0---0---0---0---|-------------4---|-2---2---2---0---|
E|-3---3---3---3---|-----------------|-----------------|-----------------|
   1 + 2 + 3 + 4 +   1 + 2 + 3 + 4 +   1 + 2 + 3 + 4 +   1 + 2 + 3 + 4 +

   G                 A                 Bm
e|-----------------|-----------------|-----------------|-----------------|
B|---3---3---3---3-|---2---2---2-----|---3---3---3---3-|---3---3---3---3-|
G|---4---4---4---4-|---2---2---2-----|---4---4---4---4-|---4---4---4---4-|
D|-----------------|-----------------|-----------------|-----------------|
A|-----------------|-0---0---0---0---|-2---2---2---2---|-2---2---2---2---|
E|-3---3---3---3---|-----------------|-----------------|-----------------|
   1 + 2 + 3 + 4 +   1 + 2 + 3 + 4 +   1 + 2 + 3 + 4 +   1 + 2 + 3 + 4 +

   A
e|-----------------|-----------------|
B|---2---2---2---2-|---5---5---5---5-|
G|---2---2---2---2-|---2---2---2---2-|
D|-----------------|-----------------|
A|-0---0---0---0---|-0---0---0---0---|
E|-----------------|-----------------|
   1 + 2 + 3 + 4 +   1 + 2 + 3 + 4 +   

[Verse 3]
   D                 F#m               D                 F#m
e|-----------------|-----------------|-----------------|-----------------|
B|---3---3---3---3-|---2---2---2---2-|---3---3---3---3-|---2---2---2-----|
G|---2---2---2---2-|---2---2---2---2-|---2---2---2---2-|---2---2---2-----|
D|-0---0---0---0---|-4---4---4---4---|-0---0---0---0---|-4---4---4---4---|
A|-----------------|-----------------|-----------------|-----------------|
E|-----------------|-----------------|-----------------|-----------------|
   1 + 2 + 3 + 4 +   1 + 2 + 3 + 4 +   1 + 2 + 3 + 4 +   1 + 2 + 3 + 4 +

   Bm                G       A         Bm                G       A
e|-----------------|-----------------|-----------------|-----------------|
B|---3---3---3-----|---3---3---2---2-|---3---3---3-----|---3---3---2---2-|
G|---4---4---4-----|---4---4---2---2-|---4---4---4-----|---4---4---2---2-|
D|-----------------|-----------------|-----------------|-----------------|
A|-2---2---2---0---|---------0---0---|-2---2---2---0---|---------0---0---|
E|-----------------|-3---3-----------|-----------------|-3---3-----------|
   1 + 2 + 3 + 4 +   1 + 2 + 3 + 4 +   1 + 2 + 3 + 4 +   1 + 2 + 3 + 4 +


   Bm                G       A         Bm                A
e|-----------------|-----------------|-----------------|-----------------|
B|---3---3---3-----|---3---3---2---2-|---3---3---3---3-|---2---2---2---2-|
G|---4---4---4-----|---4---4---2---2-|---4---4---4---4-|---2---2---2---2-|
D|-----------------|-----------------|-----------------|-----------------|
A|-2---2---2---0---|---------0---0---|-2---2---2---2---|-0---0---0---0---|
E|-----------------|-3---3-----------|-----------------|-----------------|
   1 + 2 + 3 + 4 +   1 + 2 + 3 + 4 +   1 + 2 + 3 + 4 +   1 + 2 + 3 + 4 +

   A 
e|-----------------|
B|---5---5---5---5-|
G|---2---2---2---2-|
D|-----------------|
A|-0---0---0---0---|
E|-----------------|
   1 + 2 + 3 + 4 +   


[Chorus 3]
   D                 Bm                D                 Bm
e|-----------------|-----------------|-----------------|-----------------|
B|---3---3---3-----|---3---3---3---3-|---3---3---3-----|---3---3---3---3-|
G|---2---2---2-----|---4---4---4---4-|---2---2---2-----|---4---4---4---4-|
D|-0---0---0-------|-----------------|-0---0---0-------|-----------------| x 4
A|-------------0---|-2---2---2---4---|--------------0--|-2---2---2---4---|
E|-----------------|-----------------|-----------------|-----------------|
   1 + 2 + 3 + 4 +   1 + 2 + 3 + 4 +   1 + 2 + 3 + 4 +   1 + 2 + 3 + 4 +


[Ending]
   D           D/A   
e|-----------------|-2-|
B|---3---3---3---3-|-3-|
G|---2---2---2---2-|-2-|
D|-0---0---0-------|-0-|
A|-------------0---|---|
E|-----------------|---|
   1 + 2 + 3 + 4 +