5/10

DIFFICULTY

DROP D TUNING

NO CAPO

Guitar Chord & Songwriting Cheat Sheet

GUITARZERO2HERO FREEBIE:

CHORD & SONGWRITING CHEAT SHEET

MASTER OVER 200+ CHORDS & MORE - YOU'LL ALSO RECEIVE THE LATEST NEWS & UPDATES FROM GUITARZERO2HERO

This video is a step-be-step lesson tutorial on how to play The Foo Fighters’s classic hit “Everlong” on acoustic guitar. This is one of my all time favourite songs by one of the best rock bands ever!

Enjoy! Like the video and subscribe to the channel for more videos in the future!

[intro/verse]

e|----------------------------------------|
B|----------------------------------------|
G|----------------------------------------|
D|-----11----11-11---11-11---11---11-11-11|
A|-----9-----9--9----9--9----9----9--9--9-|
D|-0-0----0-------0-------0----0----------|

e|----------------------------------------|
B|----------------------------------------|
G|----------------------------------------|
D|-----11----11-11---11-11---11---11-11-11|
A|-----9-----9--9----9--9----9----9--9--9-|
D|-9-9----9-------9-------9----9----------|

e|-------------------------------------------------------|
B|-------------------------------------------------------|
G|-------------------------------------------------------|
D|-----7-7-----7-7------11-11----11-11---11-11------11-11|
A|-----5-5-----5-5------9--9-----9--9----9--9-------9--9-|
D|-5-5-----5-5------9-9------9-9------9-9-------9-9------|


[pre-chorus]

e|---------------------------------------------------------|
B|---------------------------------------------------------|
G|---------------------------------------------------------|
D|---------------------------------7-7-7-7-7-7-7-7-7-7-7-7-| x2
A|-4-4-4-5-5-5-7-7-7-9-9-9-10-10-9-7-7-7-7-7-7-7-7-7-7-7-7-|
D|-0-0-0-0-0-0-0-0-0-0-0-0-0--0--0-7-7-7-7-7-7-7-7-7-7-7-7-| 

e|-------------------|
B|-------------------|
G|-------------------|
D|-------------------|
A|-4-4-4-5-5-5-7-7-7-|
D|-0-0-0-0-0-0-0-0-0-|


[chorus]

e|------------------------------------------------------|
B|------------------------------------------------------|
G|--------------------------7-7-7--7-7-7--7-7-7-7-7-7-7-|
D|-9--9-9-9-9-9-5-5-5-5-5-5-7-7-7--7-7-7--7-7-7-7-7-7-7-| x2
A|-9--9-9-9-9-9-5-5-5-5-5-5-5-5-5--5-5-5--5-5-5-5-5-5-5-|
D|-9--9-9-9-9-9-5-5-5-5-5-5-----------------------------| 

e|--------------------------------------------------|
B|--------------------------------------------------|
G|--------------------------7-7-7-7-7-7-------------|
D|-9--9-9-9-9-9-5-5-5-5-5-5-7-7-7-7-7-7-7-7-7-7-7-7-|
A|-9--9-9-9-9-9-5-5-5-5-5-5-5-5-5-5-5-5-7-7-7-7-7-7-|
D|-9--9-9-9-9-9-5-5-5-5-5-5-------------7-7-7-7-7-7-|

e|---------------------------|
B|---------------------------|
G|---------------------------|
D|-5-5-5-5-5-5-5-5-5-5-5-5-5-|
A|-5-5-5-5-5-5-5-5-5-5-5-5-5-|
D|-5-5-5-5-5-5-5-5-5-5-5-5-5-|