4.5/10

DIFFICULTY

STANDARD TUNING

NO CAPO

Guitar Chord & Songwriting Cheat Sheet

GUITARZERO2HERO FREEBIE:

CHORD & SONGWRITING CHEAT SHEET

MASTER OVER 200+ CHORDS & MORE - YOU'LL ALSO RECEIVE THE LATEST NEWS & UPDATES FROM GUITARZERO2HERO

CHORD SHAPES

This video is a basic step-by-step lesson tutorial on how to play Blink 182’s new track “Bored To Death” on guitar.

Thanks to my friend Bec Hammond for laying vocals check out her covers channel here: https://www.youtube.com/watch?v=ur9JRc7aGqM

Enjoy! Like the video and subscribe to the channel for more videos in the future!

https://tabs.ultimate-guitar.com/b/blink-182/bored_to_death_tab.htm

[Intro/Verse 1]

[Guitar 1]
e|-----------------|-----------------|-----------------|-----------------|
B|-----------------|-----------------|-----------------|-----------------|
G|-----------------|-----------------|-----------------|-----------------|
D|-----2-------2---|-----2-------2---|-----2-------0---|-------------0---|
A|-0-0-----0-0-----|-3-3-----3-3-----|-----------------|-----3-----------|
E|-----------------|-----------------|-1-1-----1-1-----|-1-1-----1-1-----|
   1 + 2 + 3 + 4 +   1 + 2 + 3 + 4 +   1 + 2 + 3 + 4 +   1 + 2 + 3 + 4 + 


[Prechorus]

[Guitar 1]
e|-----------------|-----------------|-----------------|-----------------|---|
B|-----------------|-----------------|-----------------|-----------------|---|
G|-----------------|-----------------|-----------------|-----------------|---|
D|-----2-------2---|-----2-------2---|-----5-------3---|-----2--------2--|---|
A|-0-0-----0-0-----|-0-0-----0-0-----|-3-3-----3-3-----|-3-3-----3-3-----|---|
E|-----------------|-----------------|-----------------|-----------------|-1-|
   1 + 2 + 3 + 4 +   1 + 2 + 3 + 4 +   1 + 2 + 3 + 4 +   1 + 2 + 3 + 4 + 

[Guitar 2 - Palm Mute]
e|-----------------|-----------------|-----------------|-----------------|
B|-----------------|-----------------|-----------------|-----------------|
G|-2-2-2-2-2-2-2-2-|-2-2-2-2-2-2-2-2-|-5-5-5-5-5-5-5-5-|-5-5-5-5-5-5-5-5-|
D|-2-2-2-2-2-2-2-2-|-2-2-2-2-2-2-2-2-|-5-5-5-5-5-5-5-5-|-5-5-5-5-5-5-5-5-|
A|-0-0-0-0-0-0-0-0-|-0-0-0-0-0-0-0-0-|-3-3-3-3-3-3-3-3-|-3-3-3-3-3-3-3-3-|
E|-----------------|-----------------|-----------------|-----------------|
   1 + 2 + 3 + 4 +   1 + 2 + 3 + 4 +   1 + 2 + 3 + 4 +   1 + 2 + 3 + 4 + 


[Chorus 1]

e|-----------------|-----------------|-----------------|-----------------|
B|-----------------|-----------------|-----------------|-----------------|
G|-5-5-5-5-5-5-5-5-|---5-5-5-5-5-5-5-|-----------------|-----------------|
D|-5-5-5-5-5-5-5-5-|---5-5-5-5-5-5-5-|-5-5-5-5-5-5-5-5-|---5-5-5-5-5-5-5-|
A|-3-3-3-3-3-3-3-3-|---3-3-3-3-3-3-3-|-5-5-5-5-5-5-5-5-|---5-5-5-5-5-5-5-|
E|-----------------|-----------------|-3-3-3-3-3-3-3-3-|---3-3-3-3-3-3-3-|
   1 + 2 + 3 + 4 +   1 + 2 + 3 + 4 +   1 + 2 + 3 + 4 +   1 + 2 + 3 + 4 + 

e|-----------------|-----------------|-----------------|-----------------|
B|-----------------|-----------------|-----------------|-----------------|
G|-----------------|-----------------|-----------------|-----------------|
D|-7-7-7-7-7-7-7-7-|---7-7-7-7-7-7-7-|-3-3-3-3-3-3-3-3-|---3-3-3-3-3-3-3-|
A|-7-7-7-7-7-7-7-7-|---7-7-7-7-7-7-7-|-3-3-3-3-3-3-3-3-|---3-3-3-3-3-3-3-|
E|-5-5-5-5-5-5-5-5-|---5-5-5-5-5-5-5-|-1-1-1-1-1-1-1-1-|---1-1-1-1-1-1-1-|
   1 + 2 + 3 + 4 +   1 + 2 + 3 + 4 +   1 + 2 + 3 + 4 +   1 + 2 + 3 + 4 + 

e|-----------------|-----------------|-----------------|-----------------|
B|-----------------|-----------------|-----------------|-----------------|
G|-5-5-5-5-5-5-5-5-|---5-5-5-5-5-5-5-|-----------------|-----------------|
D|-5-5-5-5-5-5-5-5-|---5-5-5-5-5-5-5-|-5-5-5-5-5-5-5-5-|---5-5-5-5-5-5-5-|
A|-3-3-3-3-3-3-3-3-|---3-3-3-3-3-3-3-|-5-5-5-5-5-5-5-5-|---5-5-5-5-5-5-5-|
E|-----------------|-----------------|-3-3-3-3-3-3-3-3-|---3-3-3-3-3-3-3-|
   1 + 2 + 3 + 4 +   1 + 2 + 3 + 4 +   1 + 2 + 3 + 4 +   1 + 2 + 3 + 4 + 

e|-----------------|-----------------|-----------------|-----------------|
B|-----------------|-----------------|-----------------|-----------------|
G|-----------------|-----------------|-----------------|-----------------|
D|-7-7-7-7-7-7-7-7-|---7-7-7-7-7-7-7-|-3---------------|-----------------|
A|-7-7-7-7-7-7-7-7-|---7-7-7-7-7-7-7-|-3---------------|-----------------|
E|-5-5-5-5-5-5-5-5-|---5-5-5-5-5-5-5-|-1---------------|-----------------|
   1 + 2 + 3 + 4 +   1 + 2 + 3 + 4 +   1 + 2 + 3 + 4 +   1 + 2 + 3 + 4 + 


[Verse 2]

[Guitar 1]
e|-----------------|-----------------|-----------------|-----------------|
B|-----------------|-----------------|-----------------|-----------------|
G|-----------------|-----------------|-----------------|-----------------|
D|-----2-------2---|-----2-------2---|-----2-------0---|-------------0---|
A|-0-0-----0-0-----|-3-3-----3-3-----|-----------------|-----3-----------|
E|-----------------|-----------------|-1-1-----1-1-----|-1-1-----1-1-----|
   1 + 2 + 3 + 4 +   1 + 2 + 3 + 4 +   1 + 2 + 3 + 4 +   1 + 2 + 3 + 4 + 

[Guitar 2 - Palm Mute]                                              
e|-----------------|-----------------|-----------------|-----------------|
B|-----------------|-----------------|-----------------|-----------------|
G|-2-2-2-2-2-2-2-2-|-5-5-5-5-5-5-5-5-|-----------------|-----------------|
D|-2-2-2-2-2-2-2-2-|-5-5-5-5-5-5-5-5-|-3-3-3-3-3-3-3-3-|-3-3-3-3-3-3-3-3-|
A|-0-0-0-0-0-0-0-0-|-3-3-3-3-3-3-3-3-|-3-3-3-3-3-3-3-3-|-3-3-3-3-3-3-3-3-|
E|-----------------|-----------------|-1-1-1-1-1-1-1-1-|-1-1-1-1-1-1-1-1-|
   1 + 2 + 3 + 4 +   1 + 2 + 3 + 4 +   1 + 2 + 3 + 4 +   1 + 2 + 3 + 4 + 


[Prechorus 2]

[Guitar 1]
e|-----------------|-----------------|-----------------|-----------------|---|
B|-----------------|-----------------|-----------------|-----------------|---|
G|-----------------|-----------------|-----------------|-----------------|---|
D|-----2-------2---|-----2-------2---|-----5-------3---|-----2--------2--|---|
A|-0-0-----0-0-----|-0-0-----0-0-----|-3-3-----3-3-----|-3-3-----3-3-----|---|
E|-----------------|-----------------|-----------------|-----------------|-1-|
   1 + 2 + 3 + 4 +   1 + 2 + 3 + 4 +   1 + 2 + 3 + 4 +   1 + 2 + 3 + 4 + 

[Guitar 2]
e|-----------------|-----------------|-----------------|-----------------|---|
B|-----------------|-----------------|-----------------|-----------------|---|
G|-2---------------|-----------------|-5---------------|-----------------|---|
D|-2---------------|-----------------|-5---------------|-----------------|-3-|
A|-0---------------|-----------------|-3---------------|-----------------|-3-|
E|-----------------|-----------------|-----------------|-----------------|-1-|
   1 + 2 + 3 + 4 +   1 + 2 + 3 + 4 +   1 + 2 + 3 + 4 +   1 + 2 + 3 + 4 + 


[Chorus 2]

e|-----------------|-----------------|-----------------|-----------------|
B|-----------------|-----------------|-----------------|-----------------|
G|-5-5-5-5-5-5-5-5-|---5-5-5-5-5-5-5-|-----------------|-----------------|
D|-5-5-5-5-5-5-5-5-|---5-5-5-5-5-5-5-|-5-5-5-5-5-5-5-5-|---5-5-5-5-5-5-5-|
A|-3-3-3-3-3-3-3-3-|---3-3-3-3-3-3-3-|-5-5-5-5-5-5-5-5-|---5-5-5-5-5-5-5-|
E|-----------------|-----------------|-3-3-3-3-3-3-3-3-|---3-3-3-3-3-3-3-|
   1 + 2 + 3 + 4 +   1 + 2 + 3 + 4 +   1 + 2 + 3 + 4 +   1 + 2 + 3 + 4 + 

e|-----------------|-----------------|-----------------|-----------------|
B|-----------------|-----------------|-----------------|-----------------|
G|-----------------|-----------------|-----------------|-----------------|
D|-7-7-7-7-7-7-7-7-|---7-7-7-7-7-7-7-|-3-3-3-3-3-3-3-3-|---3-3-3-3-3-3-3-|
A|-7-7-7-7-7-7-7-7-|---7-7-7-7-7-7-7-|-3-3-3-3-3-3-3-3-|---3-3-3-3-3-3-3-|
E|-5-5-5-5-5-5-5-5-|---5-5-5-5-5-5-5-|-1-1-1-1-1-1-1-1-|---1-1-1-1-1-1-1-|
   1 + 2 + 3 + 4 +   1 + 2 + 3 + 4 +   1 + 2 + 3 + 4 +   1 + 2 + 3 + 4 + 

e|-----------------|-----------------|-----------------|-----------------|
B|-----------------|-----------------|-----------------|-----------------|
G|-5-5-5-5-5-5-5-5-|---5-5-5-5-5-5-5-|-----------------|-----------------|
D|-5-5-5-5-5-5-5-5-|---5-5-5-5-5-5-5-|-5-5-5-5-5-5-5-5-|---5-5-5-5-5-5-5-|
A|-3-3-3-3-3-3-3-3-|---3-3-3-3-3-3-3-|-5-5-5-5-5-5-5-5-|---5-5-5-5-5-5-5-|
E|-----------------|-----------------|-3-3-3-3-3-3-3-3-|---3-3-3-3-3-3-3-|
   1 + 2 + 3 + 4 +   1 + 2 + 3 + 4 +   1 + 2 + 3 + 4 +   1 + 2 + 3 + 4 + 

e|-----------------|-----------------|-----------------|-----------------|
B|-----------------|-----------------|-----------------|-----------------|
G|-----------------|-----------------|-----------------|-----------------|
D|-7-7-7-7-7-7-7-7-|---7-7-7-7-7-7-7-|-3---------------|-----------------|
A|-7-7-7-7-7-7-7-7-|---7-7-7-7-7-7-7-|-3---------------|-----------------|
E|-5-5-5-5-5-5-5-5-|---5-5-5-5-5-5-5-|-1---------------|-----------------|
   1 + 2 + 3 + 4 +   1 + 2 + 3 + 4 +   1 + 2 + 3 + 4 +   1 + 2 + 3 + 4 + 


[Bridge]

e|-----------------|-----------------|-----------------|-----------------|
B|-----------------|-----------------|-----------------|-----------------|
G|-----------------|-----------------|-----------------|-----------------|
D|-5-5-5-5-5-5-5-5-|-5-5-5-5-5-------|-----------------|-----------5-5-5-|
A|-3-3-3-3-3-2-2-3-|-3-3-3-3-3-2-2-3-|-3-3-3-3-3-2-2-5-|-5-5-5-5-5-2-2-3-|
E|-----------------|-----------0-0-1-|-1-1-1-1-1-0-0-3-|-3-3-3-3-3-------|   X6
   1 + 2 + 3 + 4 +   1 + 2 + 3 + 4 +   1 + 2 + 3 + 4 +   1 + 2 + 3 + 4 + 

e|-----------------|-----------------|-----------------|-----------------|
B|-----------------|-----------------|-----------------|-----------------|
G|-----------------|-----------------|-----------------|-----------------|
D|-5-5-5-5-5-5-5-5-|-5-5-5-5-5-5-5-5-|-----------------|-----------------|
A|-3-3-3-3-3-3-3-3-|-3-3-3-3-3-3-3-3-|-3-3-3-3-3-3-3-3-|-5-5-5-5-5-5-5-5-|
E|-----------------|-----------------|-1-1-1-1-1-1-1-1-|-3-3-3-3-3-3-3-3-|


[Chorus 3]

e|-----------------|-----------------|-----------------|-----------------|
B|-----------------|-----------------|-----------------|-----------------|
G|-5-5-5-5-5-5-5-5-|---5-5-5-5-5-5-5-|-----------------|-----------------|
D|-5-5-5-5-5-5-5-5-|---5-5-5-5-5-5-5-|-5-5-5-5-5-5-5-5-|---5-5-5-5-5-5-5-|
A|-3-3-3-3-3-3-3-3-|---3-3-3-3-3-3-3-|-5-5-5-5-5-5-5-5-|---5-5-5-5-5-5-5-|
E|-----------------|-----------------|-3-3-3-3-3-3-3-3-|---3-3-3-3-3-3-3-|
   1 + 2 + 3 + 4 +   1 + 2 + 3 + 4 +   1 + 2 + 3 + 4 +   1 + 2 + 3 + 4 + 

e|-----------------|-----------------|-----------------|-----------------|
B|-----------------|-----------------|-----------------|-----------------|
G|-----------------|-----------------|-----------------|-----------------|
D|-7-7-7-7-7-7-7-7-|---7-7-7-7-7-7-7-|-3-3-3-3-3-3-3-3-|---3-3-3-3-3-3-3-|
A|-7-7-7-7-7-7-7-7-|---7-7-7-7-7-7-7-|-3-3-3-3-3-3-3-3-|---3-3-3-3-3-3-3-|
E|-5-5-5-5-5-5-5-5-|---5-5-5-5-5-5-5-|-1-1-1-1-1-1-1-1-|---1-1-1-1-1-1-1-|
   1 + 2 + 3 + 4 +   1 + 2 + 3 + 4 +   1 + 2 + 3 + 4 +   1 + 2 + 3 + 4 + 

e|-----------------|-----------------|-----------------|-----------------|
B|-----------------|-----------------|-----------------|-----------------|
G|-5-5-5-5-5-5-5-5-|---5-5-5-5-5-5-5-|-----------------|-----------------|
D|-5-5-5-5-5-5-5-5-|---5-5-5-5-5-5-5-|-5-5-5-5-5-5-5-5-|---5-5-5-5-5-5-5-|
A|-3-3-3-3-3-3-3-3-|---3-3-3-3-3-3-3-|-5-5-5-5-5-5-5-5-|---5-5-5-5-5-5-5-|
E|-----------------|-----------------|-3-3-3-3-3-3-3-3-|---3-3-3-3-3-3-3-|
   1 + 2 + 3 + 4 +   1 + 2 + 3 + 4 +   1 + 2 + 3 + 4 +   1 + 2 + 3 + 4 + 

e|-----------------|-----------------|-----------------|-----------------|
B|-----------------|-----------------|-----------------|-----------------|
G|-----------------|-----------------|-----------------|-----------------|
D|-7-7-7-7-7-7-7-7-|---7-7-7-7-7-7-7-|-3---------------|-----------------|
A|-7-7-7-7-7-7-7-7-|---7-7-7-7-7-7-7-|-3---------------|-----------------|
E|-5-5-5-5-5-5-5-5-|---5-5-5-5-5-5-5-|-1---------------|-----------------|
   1 + 2 + 3 + 4 +   1 + 2 + 3 + 4 +   1 + 2 + 3 + 4 +   1 + 2 + 3 + 4 + 


[Outro - Palm Mute]
e|-----------------|-----------------|-----------------|-----------------|
B|-----------------|-----------------|-----------------|-----------------|
G|-----------------|-----------------|-----------------|-----------------|
D|-5-5-5-5-5-5-5-5-|-5-5-5-5-5-------|-----------------|-----------5-5-5-|
A|-3-3-3-3-3-2-2-3-|-3-3-3-3-3-2-2-3-|-3-3-3-3-3-2-2-5-|-5-5-5-5-5-2-2-3-|
E|-----------------|-----------0-0-1-|-1-1-1-1-1-0-0-3-|-3-3-3-3-3-------| Repeat till end
   1 + 2 + 3 + 4 +   1 + 2 + 3 + 4 +   1 + 2 + 3 + 4 +   1 + 2 + 3 + 4 + 

e|-----------------|
B|-----------------|
G|-5---------------|
D|-5---------------|
A|-3---------------|
E|-----------------|


************************************

| x   Dead note
| g   Grace note
| (n) Ghost note
| h   Hammer-on
| p   Pull-off
| r   Release
| >   Accented note
| t   Tapping
| b   Bend
| br  Bend release
| pb  Pre-bend
| pbr Pre-bend release
| /   Slide up
| \   Slide down
| ~   Vibrato
| s   Slap
| P   Pop
| PM  Palm mute
| TR  Trill
| N   Tremolo

************************************