5/10

DIFFICULTY

STANDARD TUNING

NO CAPO

Guitar Chord & Songwriting Cheat Sheet

GUITARZERO2HERO FREEBIE:

CHORD & SONGWRITING CHEAT SHEET

MASTER OVER 200+ CHORDS & MORE - YOU'LL ALSO RECEIVE THE LATEST NEWS & UPDATES FROM GUITARZERO2HERO

CHORD SHAPES

This video is a brief tutorial on how to play Ellie Goulding’s song “On My Mind”
The song is easy to learn and in order to play it you’ll need a guitar (of course), and basic knowledge of open chord and barre chords. This Ellie Goulding song uses 4 chords throughout the song. It is broken up into a verse, chorus and bridge.

At the end of the guitar tutorial plat the song with an vocal overdub to show you how it sounds in context with the lyrics and melody.

Big thanks to my talented friend Kellie for singing in this.
Check out her covers at https://www.youtube.com/channel/UCYiB5GbJ4Qp5wXH1OjbK3MQ

Enjoy! Like the video and subscribe to the channel for more videos in the future! Also give my guitar tab for On My Mind by Ellie Goulding 5 stars at ultimate-guitar if you like it!

http://tabs.ultimate-guitar.com/e/ellie_goulding/on_my_mind_tab.htm

[Intro Riff]
Guitar 1
e|-----------------------------|    |------------------|
B|------------13-----------10--|    |------------------|
G|----7-10-12-----12--12-------|x3  |---10--10--10--10-|
D|--8--------------------------|    |---12--12--12--12-|
A|-----------------------------|    |------------------|
E|-----------------------------|    |------------------|

[Intro/Verse/Prechorus]
Guitar 2
e|-----------------------------|    
B|-----6--------8---------10---|    
G|-----7--------9---------10---|x3  
D|-----------------------------|    
A|---8-------10--------12------|    
E|-6-----8--------10-----------|    


[Chorus]
                         Bb C Dm
 Why I got you on my mind
                         Bb C Dm
 Why I got you on my mind
                         Bb C Dm
 Why I got you on my mind
                                                  
 Why I got you on my mind
        Gm                
 But my heart don't understand...
                         Bb C Dm
 Why I got you on my mind
                         Bb C Dm
 Why I got you on my mind
                         Bb C Dm
 Why I got you on my mind
                     Gm    
 Why I got you on my m...i...n...d


[Bridge]
Gm                     Dm        C
 You got yourself in a dangerous zone
            G                          Dm     C
 'Cause we both have the fear, fear of being alone
          Gm            
 And now I don't understand it
           Dm                  C
 You don't mess with love, you mess with the truth
        Gm                               
 And my heart don't understand it, understand it, understand it